Log in

One click and you are in

Login with Facebook Login with Google

Why sign up and log in

Guitar Tabs Explorer
Hella tabs for The mother could be you

Guitar tabs

Band: HELLA
Album: The Devil Isn't Red
Tabbed by: Henrik Iversen


Tuning: F#ADGBe

0:00
|-9--10------4-|
|-9--10------4-|
|-6---6------1-|
|-6---6------1-|
|-x---x------x-|
|-7---7------2-|

0:41                          1:07
|-------------------------|  |--------------|
|-21--19--19--19-19-19----|  |-21--22--22hb-|
|--x---x---x---x--x--x----|  |--x---x---x---|
|--x---x--16---x--x--x----|  |--x---x---x---|
|-20--18-------x-16-18----|  |-20--21--21---|
|--0---0------16-----0----|  |--0-----------|

1:14
|-4-----9--10--|
|-4-----9--10--|
|-1-----6---6--|
|-1-----6---6--|
|-x-----x---x--|
|-2----/7---7--|

1:42                          2:09
|-------------------------|  |---------------------------|
|-6--9-6------------------|  |-77>>>>-------------77-----|
|-6----6----7-----7-----7-|  |-------77>>>>----------77--|
|-7----7--0-0-0-0-0-0-0-0-|  |------------77>>>>>-------7|
|-0-----------------------|  |---------------------------|
|-------------------------|  |-0-0-0-0-0-0-0-0-0-0-0-0-0-|

2:14              2:19
|-------------|  |-----------------------------|
|-------99----|  |-----------1919-----------19-|
|----99----99-|  |------2020------2020---------|
|-99----------|  |-2121------------------------|
|-77777777777-|  |-----------------------------|
|-------------|  |-1717171717171717171717---17-|

2:37           2:43
|----------------------------------------------------------------|
|19/21--18/19----------------------------------------------------|
|-x/-x---x/-x----------------------------------------------------|
|-x/-x---x/-x--slidepick this chord progressively down towards...|
|18/20--17/18----------------------------------------------------|
|-0/-0---0/-0----------------------------------------------------|

2:45 .. This riff                                2:54
|--------------------------------------------|  |-------------------------|
|----11--11----16---14---11---11----14----19-|  |------11-11--11--11--11--|
|--------------------------------------------|  |-------x--x---x---x---x--|
|--------------------------------------------|  |-------x-11qb-r--qb---r--|
|--9---9-----14---12----9---9-----12---17----|  |-------9--9---9---9---9--|
|--0---0------0----0----0---0------0----0----|  |-0000--0--0---0---0---0--|

2:58
|-7--6-----5-------------------------|
|-7--6-----5------11-11--11--11--11--|
|-4--4-----2-------x--x---x---x---x--|
|-4--4-----2-------x-11qb-r--qb---r--|
|-x--x-----x-------9--9---9---9---9--|
|-5--5-----3-------0--0---0---0---0--|

end on
|-----|
|-11--|
|--x--|
|--x--|
|--9--|
|--0--|

Almost there ...

Sign in to get your own page with links to favourite songs and more. You are just one click away...

Login with Facebook Login with Google