GuitarTabsExplorer icon
GuitarTabsExplorer icon

Log in

Songbook

  • Log in to add and see bookmarks

Last visited songs

    No songs visited yet...

Two Days Old by Michael Hedges

Tabs

"Two Days Old", by Michael Hedges
from Live on the Double Planet
Transcribed by Jay Armstrong ([email protected])
with a few changes by Jeff Lo ([email protected])

As always, corrections and comments are more than welcome.

h = hammer
p = pulloff
/ = slide up
\ = slide down
^ = harmonic
() = grace note

Tuning (Low to high) : Chord diagramD MajorD Chord diagramG+G Chord diagramD MajorD Chord diagramG+G Chord diagramBb majorBb Chord diagramC majorC
    |---1---*---2---*---3---*---4---*-|---1---*---2---*---3---*---4---*-|
    1
 Chord diagramC majorC|-----|---------------0-----------------|---------------------------------|
Chord diagramBb majorBb|-----|-----------0------^7-------------|---------------------------------|
 Chord diagramG+G|-----|-------0----------^7-------------|---------------------------------|
 Chord diagramD MajorD|-----|------------------^7-------------|---------------------------------|
 Chord diagramG+G|-----|---0-----------------------------|-------------------------------0-|
 Chord diagramD MajorD|---0-|---------------------------------|---8-----------7-----------0-----|


    3
    Chord diagramC majorC|---------------0-----------------|---------------------------------|
   Chord diagramBb majorBb|-----------0-----^12-------------|---------------------------------|
    Chord diagramG+G|-------0---------^12-------------|---------------------------------|
    Chord diagramD MajorD|-----------------^12-------------|---------------------------------|
    Chord diagramG+G|---------------------------------|-------------------------------0-|
    Chord diagramD MajorD|---------------------------------|---8-----------7-----------0-----|


    5
    Chord diagramC majorC|---------------0-----------------|---------------------------------|
   Chord diagramBb majorBb|-----------0------^7-------------|---------------------------------|
    Chord diagramG+G|-------0----------^7-------------|---------------------------------|
    Chord diagramD MajorD|------------------^7-------------|---------------------------------|
    Chord diagramG+G|---------------------------------|-------------------------------0-|
    Chord diagramD MajorD|---------------------------------|---8-----------7-----------0-----|


    7
    Chord diagramC majorC|---------------0---------------0-|-----------0-----------0---------|
   Chord diagramBb majorBb|-----------0-----^12-----------0-|-----------0-----------0---------|
    Chord diagramG+G|-------0---------^12-----------0-|-----------0-----------0-------0-|
    Chord diagramD MajorD|-----------------^12-------------|---------------------------------|
    Chord diagramG+G|---------------------------------|---------------------------------|
    Chord diagramD MajorD|---------------------------------|---8-----------7-----------0-----|

    9
    Chord diagramC majorC|--10---------------9-------7--p0-|-----------2---------------------|
   Chord diagramBb majorBb|---------------------------------|-----------------------0---------|
    Chord diagramG+G|---------------0-------0---------|---------------------------0-----|
    Chord diagramD MajorD|-----------0---------------------|-------0-----------------------0-|
    Chord diagramG+G|---0-----------------------------|---0---------------0-------------|
    Chord diagramD MajorD|---------------------------------|---------------------------------|


    11
    Chord diagramC majorC|--10----------9h10p9--p0--18--14-|---------------------------------|
   Chord diagramBb majorBb|---------------------------------|---------------0-----------------|
    Chord diagramG+G|---------------------------------|-----------0-----------0-------0-|
    Chord diagramD MajorD|-----------0---------------------|-------0-------------------0-----|
    Chord diagramG+G|---0-----------------------------|---0-----------------------------|
    Chord diagramD MajorD|---------------------------------|---------------------------------|


    13
    Chord diagramC majorC|--10---------------9-------7--p0-|-----------2-------2--p0-------5-|
   Chord diagramBb majorBb|---------------------------------|---------------------------0-----|
    Chord diagramG+G|---------------0-------0---------|---------------0-----------------|
    Chord diagramD MajorD|-----------0---------------------|-------0-------------------------|
    Chord diagramG+G|---0-----------------------------|---0---------------0-------------|
    Chord diagramD MajorD|---------------------------------|---------------------------------|


    15
    Chord diagramC majorC|---------------0-----------7---5-|-----------0-----------5---------|
   Chord diagramBb majorBb|-------0-------------------------|---------------------------------|
    Chord diagramG+G|-----------0-----------0---------|-------0-----------------------0-|
    Chord diagramD MajorD|---------------------------------|---------------------------------|
    Chord diagramG+G|---8---------------8-------------|---8-----------7-----------------|
    Chord diagramD MajorD|---------------------------------|---------------------------0-----|


    17
    Chord diagramC majorC|--10-----------------------------|--10----------------------10-----|
   Chord diagramBb majorBb|---------------0-----------------|-------0-------------------------|
    Chord diagramG+G|-------0-----------0-------------|-----------0-----------0-------0-|
    Chord diagramD MajorD|----------10------------------10-|--------------------------10-----|
    Chord diagramG+G|---------------------------9-----|-------------------9-------------|
    Chord diagramD MajorD|--10------------------10---------|--------------10-----------------|


    19
    Chord diagramC majorC|---9-----------------------------|---9-----------------------9-----|
   Chord diagramBb majorBb|---------------0-----------------|-------0-------------------------|
    Chord diagramG+G|-------0-----------0-------------|-----------0-----------0-------0-|
    Chord diagramD MajorD|-----------8-------------------8-|---------------------------8-----|
    Chord diagramG+G|---------------------------7-----|-------------------7-------------|
    Chord diagramD MajorD|---8-------------------8---------|---------------8-----------------|


    21
    Chord diagramC majorC|---7-----------------------------|---7-----------------------------|
   Chord diagramBb majorBb|---------------0-----------------|-------0-------------------------|
    Chord diagramG+G|-------0-----------0-------------|-----------0-----------0-------0-|
    Chord diagramD MajorD|-----------6-------------------6-|---------------------------------|
    Chord diagramG+G|---------------------------5-----|-------------------5-------6-----|
    Chord diagramD MajorD|---6-------------------6---------|---------------6-----------------|


    23
    Chord diagramC majorC|---------------7-----------------|---------------7---7--/8--/9--10-|
   Chord diagramBb majorBb|-----------0-------0-------------|-------3--p0-------5--/6--/7-----|
    Chord diagramG+G|-------0---------------0-------0-|---------------------------------|
    Chord diagramD MajorD|---0-----------------------0-----|---------------------------------|
    Chord diagramG+G|---------------------------------|---------------------------------|
    Chord diagramD MajorD|---------------------------------|---0-----------------------------|


    25
    Chord diagramC majorC|--------------(10)p9-------7--p0-|-----------2---------------------|
   Chord diagramBb majorBb|---------------------------------|-----------------------0---------|
    Chord diagramG+G|---------------0-------0---------|---------------------------0-----|
    Chord diagramD MajorD|-----------0---------------------|-------0-----------------------0-|
    Chord diagramG+G|---0-----------------------------|---0---------------0-------------|
    Chord diagramD MajorD|---------------------------------|---------------------------------|


    27
    Chord diagramC9C9)h10----------9h10p9--p0--18--14-|---------------------------------|
   Chord diagramBb majorBb|---------------------------------|---------------0-----------------|
    Chord diagramG+G|---------------------------------|-----------0-----------0-------0-|
    Chord diagramD MajorD|-----------0---------------------|-------0-------------------0-----|
    Chord diagramG+G|---0-----------------------------|---0-----------------------------|
    Chord diagramD MajorD|---------------------------------|---------------------------------|


    29
    Chord diagramC9C9)h10---------------9-------7--p0-|-----------2-------2--p0-------5-|
   Chord diagramBb majorBb|---------------------------------|---------------------------0-----|
    Chord diagramG+G|---------------0-------0---------|---------------0-----------------|
    Chord diagramD MajorD|-----------0---------------------|-------0-------------------------|
    Chord diagramG+G|---0-----------------------------|---0---------------0-------------|
    Chord diagramD MajorD|---------------------------------|---------------------------------|


    31
    Chord diagramC majorC|---------------0-----------7---5-|-----------0-----------5---------|
   Chord diagramBb majorBb|-------0-------------------------|---------------------------------|
    Chord diagramG+G|-----------0-----------0---------|-------0-----------------------0-|
    Chord diagramD MajorD|---------------------------------|---------------------------------|
    Chord diagramG+G|---8---------------8-------------|---8-----------7-----------------|
    Chord diagramD MajorD|---------------------------------|---------------------------0-----|


    33
    Chord diagramC majorC|--10-----------------------------|--10----------------------10-----|
   Chord diagramBb majorBb|---------------0-----------------|-------0-------------------------|
    Chord diagramG+G|-------0-----------0-------------|-----------0-----------0-------0-|
    Chord diagramD MajorD|----------10------------------10-|--------------------------10-----|
    Chord diagramG+G|---------------------------9-----|-------------------9-------------|
    Chord diagramD MajorD|--10------------------10---------|--------------10-----------------|


    35
    Chord diagramC majorC|---9-----------------------------|---9-----------------------9\----|
   Chord diagramBb majorBb|---------------0-----------------|-------0-------------------------|
    Chord diagramG+G|-------0-----------0-------------|-----------0-----------0---------|
    Chord diagramD MajorD|-----------8-------------------8-|---------------------------8\----|
    Chord diagramG+G|---------------------------7-----|-------------------7-------------|
    Chord diagramD MajorD|---8-------------------8---------|---------------8-----------------|


    37
    Chord diagramC majorC|---3-----------------------------|---3-----------------------2--p0-|
   Chord diagramBb majorBb|---------------0-----------------|-------0-------------------------|
    Chord diagramG+G|-------0-----------0-------------|-----------0-----------0---------|
    Chord diagramD MajorD|-----------3-------------------3-|---------------------------------|
    Chord diagramG+G|---------------------------2-----|-------------------2-------------|
    Chord diagramD MajorD|---3-------------------3---------|---------------3-----------3-----|


    39
    Chord diagramC majorC|---------------------------------|---------------0---------------2-|
   Chord diagramBb majorBb|---------------0---------------0-|---------------------------------|
    Chord diagramG+G|-----------0---------------0-----|-----------0---------------0-----|
    Chord diagramD MajorD|-------2---------------2---------|-------2---------------2---------|
    Chord diagramG+G|---------------------------------|---------------------------------|
    Chord diagramD MajorD|---2-----------2p0h2-------------|---2---------------2-------------|


    41
    Chord diagramC majorC|---------------(2)p0-------------|---------------------------------|
   Chord diagramBb majorBb|---------------------------0-----|---------------------------------|
    Chord diagramG+G|---------------0---------------0-|-------------------2--p0-------0-|
    Chord diagramD MajorD|-----------1-----------1---------|-----------0---------------3-----|
    Chord diagramG+G|---------------------------------|---------------------------------|
    Chord diagramD MajorD|---1-----------------------------|---3-----------3-----------------|


    43
    Chord diagramC majorC|---------------------------0-----|-----------5--/9-----------------|
   Chord diagramBb majorBb|---------------0---------------0-|---------2---------7-------------|
    Chord diagramG+G|-----------------------0---------|-------3---------------9-----/15-|
    Chord diagramD MajorD|-----------0---------------------|---------------------------------|
    Chord diagramG+G|---------------------------------|---0-----------------------------|
    Chord diagramD MajorD|---3--/5-----------5-------------|---------------------------------|


    45
    Chord diagramC majorC|--14---------(14)p12------10-----|-----------0---------------------|
   Chord diagramBb majorBb|---------------0---------------9-|------------------11---9---------|
    Chord diagramG+G|-----------0-----------0---------|-------0------------------10-/12-|
    Chord diagramD MajorD|---------------------------------|---------------------------------|
    Chord diagramG+G|---------------------------------|--10----------10--10-------------|
    Chord diagramD MajorD|------13----------13-------------|---------------------------------|


    47
    Chord diagramC majorC|----------10-----------9---------|--\7----------\5----------\2-----|
   Chord diagramBb majorBb|-----------------------7---------|--\4----------\2----------\0-----|
    Chord diagramG+G|-------0-----------0-----------0-|-----------0-----------0---------|
    Chord diagramD MajorD|---------------0-----------0-----|-------0-----------0-------------|
    Chord diagramG+G|---0-----------------------------|---------------------------------|
    Chord diagramD MajorD|---------------------------------|---------------------------------|


    49
    Chord diagramC majorC|---------------(2)p0-------------|---------------------------------|
   Chord diagramBb majorBb|---------------------------0-----|---------------------------------|
    Chord diagramG+G|---------------0---------------0-|-------------------2--p0-------0-|
    Chord diagramD MajorD|-----------1-----------1---------|-----------0---------------3-----|
    Chord diagramG+G|---------------------------------|---------------------------------|
    Chord diagramD MajorD|---1-----------------------------|---3-----------3-----------------|


    51
    Chord diagramC majorC|-------------------------------7-|-------------------------------7-|
   Chord diagramBb majorBb|---------------0-----------------|---------------0-----------------|
    Chord diagramG+G|---------------------------0-----|-----------0---------------0-----|
    Chord diagramD MajorD|-----------0-----------0---------|-------0---------------0---------|
    Chord diagramG+G|---------------------------------|---0---------------0-------------|
    Chord diagramD MajorD|---3--/5-----------5-------------|---------------------------------|


    53
    Chord diagramC majorC|---------------------------5---8-|---------------------------------|
   Chord diagramBb majorBb|---------------------------------|-------------------------------6-|
    Chord diagramG+G|-----------0---------------5-----|---------------------------5-----|
    Chord diagramD MajorD|-----------------------6---------|-----------6-----------6---------|
    Chord diagramG+G|---------------------------------|---------------------------------|
    Chord diagramD MajorD|---6-----------6---6-------------|---6-----------6---6-------------|


    55
    Chord diagramC majorC|---7---------------------------5-|---------------8-----------------|
   Chord diagramBb majorBb|-------------------------------5-|---------------------------------|
    Chord diagramG+G|---------------------------5-----|-----------------------5-------5-|
    Chord diagramD MajorD|-----------6-----------6---------|-------6-------------------6-----|
    Chord diagramG+G|---------------------------------|---------------------------------|
    Chord diagramD MajorD|---6-----------6---6-------------|---6---------------6-------------|


    57
    Chord diagramC majorC|---7---------------------------5-|-----------------------5-------7-|
   Chord diagramBb majorBb|---------------------------6---5-|---------------5-----------------|
    Chord diagramG+G|-----------------------5---------|-----------5---------------------|
    Chord diagramD MajorD|-------------------6-------------|-------6-------------------6-----|
    Chord diagramG+G|---6-----------6-----------------|---6---------------6-------------|
    Chord diagramD MajorD|---------------------------------|---------------------------------|


    59
    Chord diagramC majorC|-------------------------------7-|-------------------------------7-|
   Chord diagramBb majorBb|-------6-------------------6-----|---------------6-----------------|
    Chord diagramG+G|---------------5-----------------|-------5---5-----------5---------|
    Chord diagramD MajorD|-----------6-----------6---------|-------6---6---------------6-----|
    Chord diagramG+G|---6-----------------------------|---6---------------6-------------|
    Chord diagramD MajorD|---------------------------------|---------------------------------|


    61
    Chord diagramC majorC|----------p0-----------3---------|-------5---------------7---------|
   Chord diagramBb majorBb|---------------------4---------4-|-----------6---------------7-----|
    Chord diagramG+G|-------------------5-------------(5)/7-----------7---------------9-|
    Chord diagramD MajorD|---------------------------------|-------------------0-------------|
    Chord diagramG+G|---------------------------------|---------------------------------|
    Chord diagramD MajorD|---0-----------0-----------------|---------------------------------|


    63
    Chord diagramC majorC|-------9--------------10---------|------15------14------12---------|
   Chord diagramBb majorBb|-----------9--------------11-----|---------------------------0-----|
    Chord diagramG+G|--------------10--------------12-|-------------------------------0-|
    Chord diagramD MajorD|-------------------0-------------|-----------0---------------------|
    Chord diagramG+G|---------------------------------|---------------------------------|
    Chord diagramD MajorD|---0-----------------------------|---0-----------------------------|


    65
    Chord diagramC majorC|--10---------------9-------7--p0-|-----------2---------------------|
   Chord diagramBb majorBb|---------------------------------|-----------------------0---------|
    Chord diagramG+G|---------------0-------0---------|---------------------------0-----|
    Chord diagramD MajorD|---------------------------------|-------0-----------------------0-|
    Chord diagramG+G|---0-----------------------------|---0---------------0-------------|
    Chord diagramD MajorD|---------------------------------|---------------------------------|


    67                               --3--
    Chord diagramC majorC|--10----------9h10p9--p0--18--14-|---------------------------------|
   Chord diagramBb majorBb|---------------------------------|---------------0---------------0-|
    Chord diagramG+G|---------------------------------|-----------0-----------0-----0---|
    Chord diagramD MajorD|-----------0---------------------|-------0-------------------0-----|
    Chord diagramG+G|---0-----------------------------|---0-----------------------------|
    Chord diagramD MajorD|---------------------------------|---------------------------------|


    69
    Chord diagramC majorC|--10---------------9------\7--p0-|-----------2-------2--p0-------5-|
   Chord diagramBb majorBb|---------------------------------|---------------------------0-----|
    Chord diagramG+G|---------------0-------0---------|---------------0-----------------|
    Chord diagramD MajorD|---------------------------------|-------0-------------------------|
    Chord diagramG+G|---0-----------------------------|---0---------------0-------------|
    Chord diagramD MajorD|---------------------------------|---------------------------------|


    71
    Chord diagramC majorC|---------------0-----------7---5-|-----------0-----------5---------|
   Chord diagramBb majorBb|-------0-------------------------|---------------------------------|
    Chord diagramG+G|-----------0-----------0---------|-------0-----------0-----------0-|
    Chord diagramD MajorD|---------------------------------|---------------------------------|
    Chord diagramG+G|---8---------------8-------------|---8-----------7-----------------|
    Chord diagramD MajorD|---------------------------------|---------------------------0-----|


    73
    Chord diagramC majorC|--10-----------------------------|--10----------------------10-----|
   Chord diagramBb majorBb|---------------0-----------------|-------0-------------------------|
    Chord diagramG+G|-------0-----------0-------------|-----------0-----------0-------0-|
    Chord diagramD MajorD|----------10------------------10-|--------------------------10-----|
    Chord diagramG+G|---------------------------9-----|-------------------9-------------|
    Chord diagramD MajorD|--10------------------10---------|--------------10-----------------|


    75
    Chord diagramC majorC|---9-----------------------------|---9-----------------------9\----|
   Chord diagramBb majorBb|---------------0-----------------|-------0-------------------------|
    Chord diagramG+G|-------0-----------0-------------|-----------0-----------0---------|
    Chord diagramD MajorD|-----------8-------------------8-|---------------------------8\----|
    Chord diagramG+G|---------------------------7-----|-------------------7-------------|
    Chord diagramD MajorD|---8-------------------8---------|---------------8-----------------|


    77
    Chord diagramC majorC|---3-----------------------------|---3-----------------------2--p0-|
   Chord diagramBb majorBb|---------------0-----------------|-------0-------------------------|
    Chord diagramG+G|-------0-----------0-------------|-----------0-----------0---------|
    Chord diagramD MajorD|-----------3-------------------3-|---------------------------------|
    Chord diagramG+G|---------------------------2-----|-------------------2-------------|
    Chord diagramD MajorD|---3-------------------3---------|---------------3-----------3-----|


    79
    Chord diagramC majorC|---------------------------------|---------------0-----------2-----|
   Chord diagramBb majorBb|---------------0---------------0-|---------------------------------|
    Chord diagramG+G|-----------0---------------0-----|-----------0-----------0---------|
    Chord diagramD MajorD|-------2---------------2---------|-------2-------------------------|
    Chord diagramG+G|---------------------------------|---------------------------------|
    Chord diagramD MajorD|---2-----------2p0h2-------------|---2---------------2-------------|


    81
    Chord diagramC majorC|---------------(2)p0-------------|---------------------------------|
   Chord diagramBb majorBb|---------------------------0-----|---------------------------------|
    Chord diagramG+G|---------------0---------------0-|-------------------2--p0-------0-|
    Chord diagramD MajorD|-----------1-----------1---------|-----------0---------------3---0-|
    Chord diagramG+G|---------------------------------|---------------------------------|
    Chord diagramD MajorD|---1-----------------------------|---3-----------3-----------------|


    83
    Chord diagramC majorC|---------------------------0-----|-----------5--/9-----------------|
   Chord diagramBb majorBb|---------------0---------------0-|---------2---------7-------------|
    Chord diagramG+G|-----------------------0---------|-------3---------------9-----/15-|
    Chord diagramD MajorD|---------------------------------|---------------------------------|
    Chord diagramG+G|---------------------------------|---0-----------------------------|
    Chord diagramD MajorD|---3--/5-----------5-------------|---------------------------------|


    85
    Chord diagramC majorC|--14---------(14)p12------10-----|-----------0---------------------|
   Chord diagramBb majorBb|---------------0---------------9-|--------------(9)/11---9---------|
    Chord diagramG+G|-----------0-----------0---------|-------0------------------10-/12-|
    Chord diagramD MajorD|---------------------------------|---------------------------------|
    Chord diagramG+G|---------------------------------|--10----------10-----------------|
    Chord diagramD MajorD|------13----------13-------------|---------------------------------|


    87
    Chord diagramC majorC|----------10-----------9---------|--\7----------\5----------\2-----|
   Chord diagramBb majorBb|-----------------------7---------|--\4----------\2----------\0-----|
    Chord diagramG+G|-------0-----------0-----------0-|-----------0-----------0---------|
    Chord diagramD MajorD|---------------0-----------0-----|-------0-----------0-------------|
    Chord diagramG+G|---0-----------------------------|---------------------------------|
    Chord diagramD MajorD|---------------------------------|---------------------------------|


    89
    Chord diagramC majorC|---------------(2)p0-------------|---------------------------------|
   Chord diagramBb majorBb|---------------------------0-----|---------------------------------|
    Chord diagramG+G|---------------0---------------0-|-------------------2--p0-------0-|
    Chord diagramD MajorD|-----------1-----------1---------|-----------0---------------3-----|
    Chord diagramG+G|---------------------------------|---------------------------------|
    Chord diagramD MajorD|---1-----------------------------|---3-----------3-----------------|


    91
    Chord diagramC majorC|---------------------------------|---------------------------------|
   Chord diagramBb majorBb|---------------0----------^7-----|---------------------------------|
    Chord diagramG+G|-----------------------0--^7-----|---------------------------------|
    Chord diagramD MajorD|-----------0--------------^7-----|---------------------------------|
    Chord diagramG+G|---------------------------------|-------------------------------0-|
    Chord diagramD MajorD|---3--/5-----------5-------------|---8-----------7-----------0-----|


    93
    Chord diagramC majorC|---------------0---------------0-|-----------0---------------------|
   Chord diagramBb majorBb|-----------0-----^12-----------0-|-----------0---------------------|
    Chord diagramG+G|-------0---------^12-----------0-|-----------0---------------------|
    Chord diagramD MajorD|-----------------^12-------------|---------------------------------|
    Chord diagramG+G|---------------------------------|-------------------------------0-|
    Chord diagramD MajorD|---------------------------------|---8-----------7-----------0-----|


    95
    Chord diagramC majorC|---------------0-----------------|---------------------------------|
   Chord diagramBb majorBb|-----------0------^7-------------|---------------------------------|
    Chord diagramG+G|-------0----------^7-------------|---------------------------------|
    Chord diagramD MajorD|------------------^7-------------|---------------------------------|
    Chord diagramG+G|---------------------------------|-------------------------------0-|
    Chord diagramD MajorD|---------------------------------|---8-----------7-----------0-----|


    97
    Chord diagramC majorC|--------------------------^9-----|
   Chord diagramBb majorBb|------------------^7-------------|
    Chord diagramG+G|----------^7---------------------|
    Chord diagramD MajorD|--^7-----------------------------|
    Chord diagramG+G|---------------------------------|
    Chord diagramD MajorD|---------------------------------|



===========================================================================
|                                     |
| Jeff Lo            Chord diagramD MajorD|-0-------0-0-0-0-0-0-------0-0-0-0-0-0- |
| Crystal Steel Fabricators   Chord diagramC majorC|--7------7-7-7-7-7--6------6-6-6-6-6-6- |
| Route 2 Box 13        Chord diagramG+G|---0-----0-0-0-0-0---0-----0-0-0-0-0-0- |
| North Second Street Extended Chord diagramC majorC|----7----7-7-7-7-7----6----6-6-6-6-6-6- |
| Delmar, DE 19940       Chord diagramG+G|-----0---0-0-0-0-0-----0---0-0-0-0-0-0- |
| (302) 846-0613        Chord diagramD MajorD|--------------------------------------- |
| [email protected]                       -Jimmy Page  |
|                                     |
===========================================================================


"Two Days Old", by Michael Hedges from Live on the Double Planet

Transcribed by Jay Armstrong

Tuning (Low to high) : Chord diagramD MajorD Chord diagramG+G Chord diagramD MajorD Chord diagramG+G Chord diagramBb majorBb Chord diagramC majorC


----|------------------------|------------------------------|
----|-------0--7h------------|-------0---12h----------------|
----|-----0----7h------------|-----0-----12h----------------|
----|---0------7h------------|---0-------12h----------------|
----|-0----------------------|-0----------------------------|
--0-|---------------8--7--0--|--------------------8--7--0---|


|-----------------------------|-----------------------------|
|-------0--7h-----------------|-------0---12h---------------|
|-----0----7h-----------------|-----0-----12h---------------|
|---0------7h-----------------|---0-------12h---------------|
|-0---------------------------|-0---------------------------|
|---------------8-(10)--7--0--|-----------------8--7\--0----|


|--10------9---7^0---|-----2---------------|
|--------------------|--------------0------|
|--------0-----------|----------------0----|
|------0-------------|---0--------------0--|
|---0--------0-------|-0---------0---------|
|--------------------|---------------------|


|--10------9^10^9-(0)--18--14--|-------------------|
|------------------------------|-------0-----------|
|--------0---------------------|-----0------0---0--|
|------0-----------------------|---0----------0----|
|---0--------------------------|-0-----------------|
|------------------------------|-------------------|


|-10------9----7^0---|-----2---2^0----5--|-------0-----7-5-|
|--------------------|-------------0-----|---0-------------|
|-------0------------|-------------------|-----0-----0-----|
|-----0--------------|---0---------------|-----------------|
|--0--------0--------|-0-----0-----------|-8-------8-------|
|--------------------|-------------------|-----------------|


|-----0----0-----|-10------------------|-10--------------10----|
|---0----------0-|---------0-----------|----0------------------|
|----------------|----0------0---------|------0----------------|
|----------------|------10----------10-|--------------10-------|
|-8-----7--------|----------------9----|------------9----------|
|------------0---|-10----------10------|---------10------------|

          (Hold chord form, but use appropriate string-stopping)



|-9---------------|-9-----------9-|-7---------------|-7---------------|
|-------0---------|---0-----------|-------0---------|---0-------------|
|---0-----0-------|-----0---------|---0-----0-------|-----0-----0---0-|
|-----8---------8-|-----------8---|-----6---------6-|-----------------|
|-------------7---|---------7-----|-------------5---|---------5---6---|
|-8---------8-----|-------8-------|-6---------6-----|-------6---------|


               (slide, don't pick)
                 |  |
|-------7---------|--------7-----/8--/9--10--|
|-----0---0-------|---3^0----5---/6--/7------|
|---0-------0---0-|--------------------------|
|-0-----------0---|--------------------------|
|-----------------|--------------------------|
|-----------------|-0------------------------|



|--(10)----9---7^0---|-----2---------------|
|--------------------|--------------0------|
|--------0-----------|----------------0----|
|------0-------------|---0--------------0--|
|---0--------0-------|-0---------0---------|
|--------------------|---------------------|


|--10------9^10^9-(0)--18--14--|-------------------|
|------------------------------|-------0-----------|
|--------0---------------------|-----0------0---0--|
|------0-----------------------|---0----------0----|
|---0--------------------------|-0-----------------|
|------------------------------|-------------------|


|-10------9----7^0---|-----2---2^0----5--|-------0-----7-5-|
|--------------------|-------------0-----|---0-------------|
|-------0------------|-------------------|-----0-----0-----|
|-----0--------------|---0---------------|-----------------|
|--0--------0--------|-0-----0-----------|-8-------8-------|
|--------------------|-------------------|-----------------|


|-----0----0-----|-10------------------|-10--------------10----|
|---0----------0-|---------0-----------|----0------------------|
|----------------|----0------0---------|------0----------------|
|----------------|------10----------10-|--------------10-------|
|-8-----7--------|----------------9----|------------9----------|
|------------0---|-10----------10------|---------10------------|



|-9---------------|-9-----------9-|-3---------------|-3------------2^0-|
|-------0---------|---0-----------|-------0---------|---0--------------|
|---0-----0-------|-----0---------|---0-----0-------|-----0-----0------|
|-----8---------8-|-----------8---|-----3---------3-|------------------|
|-------------7---|---------7-----|-------------2---|---------2--------|
|-8---------8-----|-------8-------|-3---------3-----|-------3------3---|



|-------------------|-------0--------2-|--------2^0----------|
|-------0---------0-|------------------|-------------0-------|
|-----0---------0---|-----0--------0---|------0--------0-----|
|---2---------2-----|---2--------2-----|----1----------------|
|-------------------|------------------|---------------------|
|-2-----0^1^2-------|-2--------2-------|-1-------------------|


|----------------|--------------0---|-----5/----------------|
|----------------|--------0-------0-|----3------------------|
|----2---2^0---0-|------0-----0-----|---2------10-9/----15--|
|------------3---|----0-----0-------|-----------------------|
|--------------0-|------------------|-0---------------------|
|-3----3---------|------------------|-----------------------|




These next two bars are really awkward, and just because I've practiced
them enough to play them smoothly, that doesn't mean I think they're right.
If anyone finds a better fingering, please let me know.

|-14----------------------|--------------------------------|
|---------0--14---------9-|----11------11^9----------------|
|-------0--------0--15----|------------------10-/-12-------|
|-------------------------|--------------------------------|
|-------------------------|-10-----10--10------------------|
|----13------13-----------|--------------------------------|



|--------------------|----------------2--|--------2^0-------|
|-----12-----11------|-9------7-------0--|------------0-----|
|------------10------|-7------5----------|------0-------0---|
|---0------0------0--|-----0-------0-----|----1-------------|
|-0------0------0----|---0-------0-------|------------------|
|--------------------|-------------------|-1----------------|


|----------------|----------------7-|---------------7---|
|----------------|--------0---------|-------0-----------|
|----2---2^0---0-|------0-------0---|-----0-------0-----|
|------------3---|----0-------0-----|---0-------0-------|
|--------------0-|----------0-------|-0-------0---------|
|-3----3---------|------------------|-------------------|




This is the weird augmented arpeggio part, so sustain the notes as
long as possible. (even though I can't play this as legato as I'd like)
I know this isn't note-for-note, but it at least tells you what the left
hand is doing (which is usually just sustaining a chord).

|------------5--8--|-----------------|-7----------5--|-----8---------|
|------------------|--------------6--|---------6--5--|------------6--|
|------------5-----|------------5----|---------------|---5------5----|
|------------------|----------6------|---------------|-6------6------|
|------------------|-----------------|---------------|---------------|
|-6----6-6---------|-6----6-6--------|----6-6--------|---------------|
 (thumb)


|-7-----------5--|-------5----|--7-------------7--|-------------7---|
|----------6--5--|----5-------|-----6--------6----|-----------6-----|
|-------------5--|------------|--------5---5------|---------5-------|
|----------------|------------|-------------------|-----------------|
|-6---6-6--------|-6-------6--|--6-------6--------|-6---6-6---------|
|----------------|------------|-------------------|-----------------|


|----0----3----|-----5-------7-----|---9---------10---------|
|--------4---4-|-------6-------7---|-----9----------11------|
|-------5------|-5/7-----7-------9-|-------10----------12---|
|--------------|-----------0-------|----------0-------------|
|--------------|-------------------|------------------------|
|-0------------|-------------------|-0----------------------|


|----15--14--12--------|
|---------------0------|
|-----------------0----|
|----------------------|
|----------------------|
|-0--------------------|



Then it goes back to the main melody, then back to the intro.

The final measure after repeating is the intro is :

|------------9h----|
|--------7h--------|
|-----7h-----------|
|--7h--------------|
|------------------|
|------------------|

[ Privacy | About us ]

Welcome to the guitar community

Why join and log in?
- Get songbook with favourite songs
- Get custom made front page
- Submit chords and tabs
- Submit guitar-cover videos
- Get a lot of thumbs up for your work

Songbook

Last visited songs

Site
Home
Search
Community
Submit chords

Video

No video for this page. Check out how you can submit guitar-cover videos here

Search tabs and chords

Browse by artist

A B C D E F G H I J K L M N O P Q R S T U V W X Y Z #


Menu

Search

Video

Bookmark

Login