Log in

One click and you are in

Login with Facebook Login with Google

Why sign up and log in

Guitar Tabs Explorer
Michael Hedges guitar tabs for Ragamuffin

Guitar tabs

Tuning: Celtic (A chord diagramD MajorD A chord diagramA majorA A chord diagramD MajorD A chord diagramG MajorG A chord diagramA majorA A chord diagramD MajorD)


Tuning is DADGAD


Intro:

D|----2h3p2-----2p0----------------0------------2h3p2------5----------h5------0-h5--|
A|------------------0--0h2-2h3--3----5---------------------0---h5-----h5-----0--h5--|
G|---2------2p0-------------------0----4---0----------2p0------h5---0-h5----0---h5--|
D|--0----------------0--0h2-----3----5---5---0-----------------h5-0---h5---0----h5--|
A|--------------------------------------------------------------------h5--0-----h5--|
D|----------------------------------------------0---------------------h5-0------h5--|

D|----7--8p7p0---------12-----------0-------0---------|
A|---0---------8/10----------------0------0---3----0 -|
G|----------------10/12-------0-2-0---------0----0----|
D|-------------------------0h5------------3------3-3--|
A|--0----------0------------------------1-------------|
D|-----h8-----------------5-----3------1--------1-----|


************************************

| h  Hammer-on
| p  Pull-off
| /  Slide up

************************************

Almost there ...

Sign in to get your own page with links to favourite songs and more. You are just one click away...

Login with Facebook Login with Google