Log in

One click and you are in

Login with Facebook Login with Google

Why sign up and log in

Guitar Tabs Explorer
Heatwave tabs for Aberrant turn from the truth

Guitar tabs

Tuning=Standard(EADGBE)
+=stop sound
~=let ring
.=palm mute
Distortion
(Intro)
E----------------------------------
B----------------------------------
G----------------------------------
D----------------------------------
A-00000000000000000000-------------
E-00000000000000000000-------------
  ....................

(Pre-Chorus)
E---------------------------------------
B---------------------------------------
G---------------------------------------
D---------------------------------------(X3)
A-2-2-222--2-2-222--0-0-000--2-2-222----
E-0-0-000--3-3-333--2-2-222--0-0-000----

(Chorus)
E-------------------------------------------
B-------------------------------------------
G-------------------------------------------
D-7~---11~---9~---5-5+-55+-55+-5-5+-55+-55+-(X3)
A-7~---11~---9~---5-5+-55+-55+-5-5+-55+-55+-
E-5~----9~---7~---3-3+-33+-33+-3-3+-33+-55+-

(Verse 1)
E---------------------------------------
B---------------------------------------
G---------------------------------------
D-7777--11111111--9999--5555------------(X2)
A-7777--11111111--9999--5555------------
E-5555---9-9-9-9--7777--3333------------

(Solo)
E-----------------------------------------------
B-----------------------------------------------
G-----------------------------------------------
D-7-7+-77+-77+-7-7+-77+-77+--11-11+-1111+-1111+-
A-7-7+-77+-77+-7-7+-77+-77+--11-11+-1111+-1111+-
E-5-5+-55+-55+-5-5+-55+-55+---9--9+--9-9+--9-9+-
(Cont. Solo)
E-----------------------------------------------
B-----------------------------------------------
G-----------------------------------------------
D-11-11+-1111+-1111+--9-9+-99+-99+-9-9+-99+-99+-
A-11-11+-1111+-1111+--9-9+-99+-99+-9-9+-99+-99+-
E--9--9+--9-9+--9-9+--7-7+-77+-77+-7-7+-77+-77+-
(Cont. Solo)
E----------------------------
B----------------------------
G----------------------------
D-5-5+-55+-55+-5-5+-55+-55+--(X2)
A-5-5+-55+-55+-5-5+-55+-55+--
E-3-3+-33+-33+-3-3+-33+-33+--

(Verse 2)
E--------------------------------
B--------------------------------
G--------------------------------
D-7~-----11~-----9~-----5~-------(X2)
A-7~-----11~-----9~-----5~-------
E-5~------9~-----7~-----3~-------

(Bridge)
E-------------------------------------------
B-------------------------------------------
G-------------------------------------------
D-7-7-777--11-11-111111--9-9-999--5-5-555---(X2)
A-7-7-777--11-11-111111--9-9-999--5-5-555---
E-5-5-555---9--9--9-9-9--7-7-777--3-3-333---

(Pre-Chorus)
E--------------------------------------
B--------------------------------------
G--------------------------------------
D--------------------------------------(X2)
A-2-2-222--2-2-222--0-0-000--2-2-222---
E-0-0-000--3-3-333--2-2-222--0-0-000---

(Outro)
E--------------------------------
B--------------------------------
G--------------------------------
D--------------------------------
A-2~~~~~~~~~-(ring till silent)--
E-0~~~~~~~~~---------------------

Almost there ...

Sign in to get your own page with links to favourite songs and more. You are just one click away...

Login with Facebook Login with Google