Guitar Tabs Explorer
Heart bass tabs for These dreams

These Dreams bass tab


Be the first to rate


CaughtinthestormAuthor: Caughtinthestorm

These Dreams bass tab by Heart

"These Dreams" is a single released from American rock band Heart´s self-titled album from 1985. "These Dreams" became Heart´s first number 1 Billboard hit.

Bass tabs

Print
  • Tuning: Standard tuning
  • Difficulty: Novice

Intro
G-----------------------------------------
D-----------------------------------------
A-------5---7---8------------5---7--------
E--5--------------------5------------1----

Verse
G------------------------------------------
D------------------------------------------
A-------5--7---------5---7-----------------
E--5-------------5-----------1----1-3-5----

Pre-Chorus
G--------------------
D--------------------
A--8---7---5---------
E---------------5----

Chorus
G------------------------------------------------------------------------------------
D------------------------------------------------------------------------------------
A--7-----------------5--7-------------------8--7--------------5--7-------------------
E------7---5---3------------7---5---3--------------7--5--3----------7--5--3----1~----

*Repeat Verse
*Repeat Pre-Chorus
*Repeat Chorus

Fill
G-------------------
D-------------------
A-------------------
E----3---3-3---3----

Bridge
G--------5--------4------------------------------------------------
D------------------------------------------------------------------
A---3--------2---------0---3-----------------------8--7--5---3~----
E---------------------------------3---3-3---3----------------------

Final Verse
G---------------------------------------------------------------
D------------------7---------------------------------------7----
A-------5---7-----------5---7------------------8---7--5---------
E---5----------------------------1----1-3-5---------------------

Final Chorus (Repeat as the song fades out)
G------------------------------------------------------------------------------------
D------------------------------------------------------------------------------------
A--7-----------------5--7-------------------8--7--------------5--7--------------8----
E------7---5---3------------7---5---3--------------7--5--3----------7--5--3----------

Comment this song and these bass tabs

Do you have corrections, comments on the bass tabs, thoughts about the song or a message to the author? Write them below.