Log in

One click and you are in

Login with Facebook Login with Google

Why sign up and log in

Guitar Tabs Explorer
Heart tabs for Never

Guitar tabs with lyrics

#-- File created with Instab - http://www.pconline.com/~smcarey/instab.html

Title: Never
Album: Heart (1985)
If you've got a chorus pedal, use it for this song.
Riffs A chord diagramA augmentedA and A chord diagramBB are used in the song's chorus. Riff A chord diagramBB is sort of an extension
of A. x's signify muted notes.
Riff A:

-------------------------------------
-------------------------------------
--------------------------5-5-5--5-7-
-8x-6x-8x-------6x-6x-8x--6-6-6--6-8-
----------8x-8x-----------6-6-6--6-8-
--------------------------4-4-4--4-6-


Riff B:

----------------------------------
----------------------------------
-5-5-5--5-7---5-5-5--5-7---7-5-3--
-6-6-6--6-8---6-6-6--6-8---8-6-4--
-6-6-6--6-8---6-6-6--6-8---8-6-4--
-4-4-4--4-6---4-4-4--4-6---6-4-2--

Riffs A chord diagramC majorC through A chord diagramFF are used in the song's verse. Riffs A chord diagramC majorC and A chord diagramD MajorD are almost the
exact same riff with one small variation. Riffs A chord diagramE MajorE and A chord diagramFF are so simple they
almost don't qualify as riffs, but I include them here, or else I'd have to
tab six versions of the riff. Both Riffs A chord diagramE MajorE and A chord diagramFF are really just extensions
of riffs A chord diagramC majorC and D.


Riff C:

------------------------------------------
--4-4-4-4-6-------------------------------
--4-4-4-4-6-----------13--13-11-11-11-11--
--4-4-4-4-6-------11x-11--11-11-11-11-11--
--2-2-2-2-4-------------------------------
------------------------------------------

Riff A chord diagramD MajorD (really just Riff A chord diagramC majorC without the muted note):

------------------------------------------
--4-4-4-4-6-------------------------------
--4-4-4-4-6-----------13--13-11-11-11-11--
--4-4-4-4-6-----------11--11-11-11-11-11--
--2-2-2-2-4-------------------------------
------------------------------------------


Riff A chord diagramE MajorE (use a flanger or phaser or something on this note):

----
----
----
-11-
----
----


Riff F:

----
----
-11-
-11-
----
----


Riff A chord diagramG+G (used in the chorus, all notes are muted):

--------------------------------------------------
--------------2x----------------------4x----------
--------3x----------3x----------5x----------5x----
-----------------------4x----------------------6x-
-----4x----4x----4x----------6x----6x----6x-------
--2x----------------------4x----------------------


Riff H (really just riff A chord diagramBB with an extra repitition):

-----------------------------------------------
-----------------------------------------------
-5-5-5--5-7---5-5-5--5-7---5-5-5--5-7---7-5-3--
-6-6-6--6-8---6-6-6--6-8---6-6-6--6-8---8-6-4--
-6-6-6--6-8---6-6-6--6-8---6-6-6--6-8---8-6-4--
-4-4-4--4-6---4-4-4--4-6---4-4-4--4-6---6-4-2--

Okay. Here's how the various riffs go together to form the song.


Intro:
A chord diagramA augmentedA A chord diagramA augmentedA A chord diagramA augmentedA A chord diagramA augmentedA A chord diagramBB


Verse 1:
A chord diagramC majorC A chord diagramD MajorD A chord diagramE MajorE
A chord diagramC majorC A chord diagramD MajorD A chord diagramFF


Chorus:
A chord diagramA augmentedA A chord diagramA augmentedA A chord diagramA augmentedA A chord diagramG+G
H


Verse 2:
A chord diagramD MajorD A chord diagramC majorC A chord diagramE MajorE
A chord diagramD MajorD A chord diagramC majorC A chord diagramFF


Chorus:
A chord diagramA augmentedA A chord diagramA augmentedA A chord diagramA augmentedA A chord diagramG+G
H H


Verse 3:
A chord diagramC majorC A chord diagramE MajorE A chord diagramC majorC A chord diagramE MajorE
A chord diagramD MajorD A chord diagramC majorC A chord diagramE MajorE
A chord diagramD MajorD A chord diagramC majorC A chord diagramFF

A chord diagramA augmentedA A chord diagramA augmentedA A chord diagramA augmentedA A chord diagramA augmentedA A chord diagramA augmentedA A chord diagramA augmentedA ... to the fadeout.

Dan Scheraga
Brooklyn, NY

Other versions of Never

NeverChords

Almost there ...

Sign in to get your own page with links to favourite songs and more. You are just one click away...

Login with Facebook Login with Google