Log in

One click and you are in

Login with Facebook Login with Google

Why sign up and log in

Guitar Tabs Explorer
Heart bass tabs for Dreamboat annie

Bass tabs

tuneing G,D,A,E

There are 3 ways to play this song here is one


intro
|------------
|--------------
|-5----5-------
|---5----5-----
verse 1 play 2 X's Heading out this morning
|-----------------------------
|------5----------------------
|-5--------5---3-----3--------
|----5------------3-----3-----
Warm wind
|------------------------
|---------7-----7--------
|---7-7------7-----7----
|-5-----7----------------


chorus Oh Annie
|---------------------------------------------
|------5-----7----7---------5-----------------
|-5-------5-----7----7--5------5---3----3-----
|---5----------------------5---------3-----3--


verse 2 Goin down
|-------------------------------
|-------------------------------
|-3---3----3---3---3---3--------
|---3---3----3---3---3----3-----
no one knows
|----------------------------------
|--3----3--------------------------
|----3----3--3---3----3----3-------
|--------------3---3----3----3-----

sad faces
|------------------------
|-3---3------------------
|---3---3--3-----3-------
|-------------3-----3----

heading out to somewhere
|-------------------------------------------------
|-----5-------------------------------------------
|-5------5--3----3----3---3-----3----3----3-------
|---5----------3----3---3----3-----3---3----3-----
 repeat than fade the end

Almost there ...

Sign in to get your own page with links to favourite songs and more. You are just one click away...

Login with Facebook Login with Google