GuitarTabsExplorer icon
GuitarTabsExplorer icon

Log in

Songbook

  • Log in to add and see bookmarks

Last visited songs

  • No songs visited yet...
Crazy On You by Heart

Bass tabs

Standard Tuning
Timing is easy, if you know the song...

Fig1
|-----9-7------------------------------|
|-7-------10-9-7-----------------------|
|------------------8---------10--------|
|--------------------------------------|


Fig2
|-----9-7-----------9-7---------9-7----------|
|-7-------10-9-7--------10-9-7-----10-9----8-|
|----------------10------------8--------10---|
|--------------------------------------------|


Fig3
|--------------------------|
|-----7-7-----12-----------|
|-----0-0------------------|
|--------------------------|

The rest to follow...

[ Privacy | About us ]

Welcome to the guitar community

Why join and log in?
- Get songbook with favourite songs
- Get custom made front page
- Submit chords and tabs
- Submit guitar-cover videos
- Get a lot of thumbs up for your work

Songbook

Last visited songs

Site
Home
Search
Community
Submit chords

Video

No video for this page. Check out how you can submit guitar-cover videos here

Search tabs and chords

Browse by artist

A B C D E F G H I J K L M N O P Q R S T U V W X Y Z #


Menu

Search

Video

Bookmark

Login