Log in

One click and you are in

Login with Facebook Login with Google

Why sign up and log in

Guitar Tabs Explorer
Jeff Healey bass tabs for See the light

Bass tabs

Tuning: Standard (E A D G)


Intro:

  1 e + a 2 e + a 3 e + a 4 e + a   1 e + a 2 e + a 3 e + a 4 e + a
G|--------------------------------------------------|--------------------------------------------------|
D|--------------------------------------------------|--------------------------------------------------|
A|--5--------3--5-----------------------------------|--------------------------------------------------| (x2)
E|--------------------------------------------------|--------------------------------------------------|
  1 e + a 2 e + a 3 e + a 4 e + a   1 e + a 2 e + a 3 e + a 4 e + a
G|--------------------------------------------------|--------------------------------------------------|
D|--------------------------------------------------|--------------------------------------------------|
A|--------------------------------------------------|--------------------------------------------------|
E|--3--------1--3-----------------------------------|--------------------------------------------------|


  1 e + a 2 e + a 3 e + a 4 e + a   1 e + a 2 e + a 3 e + a 4 e + a
G|--------------------------------------------------|--------------------------------------------------|
D|--------------------------------------------------|--------------------------------------------------|
A|--5--------3--5-----------------------------------|--------------------------------------------------|
E|--------------------------------------------------|--------------------------------------------------|


  1 e + a 2 e + a 3 e + a 4 e + a   1 e + a 2 e + a 3 e + a 4 e + a
G|--------------------------------------------------|--------------------------------------------------|
D|--------------------------------------------------|--------------------------------------------------|
A|--3-----------3-----------------------------------|--------------------------------------------------|
E|-----------3--------------------------------------|--3--------1--3-----------------------------------|


  1 e + a 2 e + a 3 e + a 4 e + a   1 e + a 2 e + a 3 e + a 4 e + a
G|--------------------------------------------------|--------7-----------------17----17----17-19-------|
D|--------------------------------------------------|--------------10////16-------16----16-------------|
A|--5--------3--5-----------------------------------|--5--------------------------------------------0--|
E|--------------------------------------------------|--------------------------------------------------|


Solo 1:

  1 e + a 2 e + a 3 e + a 4 e + a   1 e + a 2 e + a 3 e + a 4 e + a
G|--------------------------------------------------|--------------------------------------------------|
D|--------------------------------------------------|--------------------------------------------------|
A|--5-----5--3--5--5-----5--------3-----3--5--5--3--|--5-----5--3--5--5-----5--------3-----3--5--5--3--|
E|--------------------------3--5-----5--------------|--------------------------3--5-----5--------------|


  1 e + a 2 e + a 3 e + a 4 e + a   1 e + a 2 e + a 3 e + a 4 e + a
G|--------------------------------------------------|--------------------------------------------------|
D|--------------------------------------------------|--------------------------------------------------|
A|--5-----5--3--5--5-----5--------3-----3--5--5--3--|--5-----5--3--5--5-----5--------3-----3-----5-----|
E|--------------------------3--5-----5--------------|--------------------------3--5-----5--------------|


  1 e + a 2 e + a 3 e + a 4 e + a   1 e + a 2 e + a 3 e + a 4 e + a
G|--------------------------------------------------|--------------------------------------------------|
D|--------------------------------3-----3--5--5--3--|--5\----------------------------------------------|
A|--------------------------3--5-----5--------------|--------------------------2-----2--3-----3--4-----|
E|--3-----3--0--3--3-----3--------------------------|--------0--0--3--3-----3--------------------------|


  1 e + a 2 e + a 3 e + a 4 e + a   1 e + a 2 e + a 3 e + a 4 e + a
G|--------------------------------------------------|--------------------------------------------------|
D|--------------------------------------------------|--------------------------------------------------|
A|--5-----5--3--5--5-----5--------3-----3--5--5--3--|--5-----5--3--5--5-----5--------3-----3-----5-----|
E|--------------------------3--5-----5--------------|--------------------------3--5-----5--------------|


  1 e + a 2 e + a 3 e + a 4 e + a   1 e + a 2 e + a 3 e + a 4 e + a
G|--------------------------------------------------|--------------------------------------------------|
D|--------------------------------------------------|--5\----------------------------------------------|
A|--3-----3-----3--3-----3--------3-----3-----3--5--|--------------------------2-----2--3-----3--4-----|
E|-----------3--------------3--5-----5--------------|--------0--0--3--3-----3--------------------------|


  1 e + a 2 e + a 3 e + a 4 e + a   1 e + a 2 e + a 3 e + a 4 e + a
G|--------------------------------------------------|--------------------------------------------------|
D|--------------------------------------------------|--------------------------------------------------|
A|--5-----5--3--5--5-----5--------3-----3--5--5--3--|--5-----5--3--5--5-----5--------3-----3--5--5--3--|
E|--------------------------3--5-----5--------------|--------------------------3--5-----5--------------|


Verse 1:

  1 e + a 2 e + a 3 e + a 4 e + a   1 e + a 2 e + a 3 e + a 4 e + a
G|--------------------------------------------------|--------------------------------------------------|
D|--------------------------------------------------|--------------------------------------------------|
A|--5-----5--3--5--5-----5--------3-----3--5--5--3--|--5-----5--3--5--5-----5--------3-----3--5--5--3--|
E|--------------------------3--5-----5--------------|--------------------------3--5-----5--------------|


  1 e + a 2 e + a 3 e + a 4 e + a   1 e + a 2 e + a 3 e + a 4 e + a
G|--------------------------------------------------|--------------------------------------------------|
D|--------------------------------------------------|--------------------------------------------------|
A|--5-----5--3--5--5-----5--------3-----3--5--5--3--|--5-----5--3--5--5-----5--------3-----3-----5-----|
E|--------------------------3--5-----5--------------|--------------------------3--5-----5--------------|


  1 e + a 2 e + a 3 e + a 4 e + a   1 e + a 2 e + a 3 e + a 4 e + a
G|--------------------------------------------------|--------------------------------------------------|
D|--------------------------------3-----3--5--5--3--|--5\----------------------------------------------|
A|--------------------------3--5-----5--------------|--------------------------2-----2--3-----3--4-----|
E|--3-----3--0--3--3-----3--------------------------|--------0--0--3--3-----3--------------------------|


  1 e + a 2 e + a 3 e + a 4 e + a   1 e + a 2 e + a 3 e + a 4 e + a
G|--------------------------------------------------|--------------------------------------------------|
D|--------------------------------------------------|--------------------------------------------------|
A|--5-----5--3--5--5-----5--------3-----3--5--5--3--|--5-----5--3--5--5-----5--------3-----3-----5-----|
E|--------------------------3--5-----5--------------|--------------------------3--5-----5--------------|


  1 e + a 2 e + a 3 e + a 4 e + a   1 e + a 2 e + a 3 e + a 4 e + a
G|--------------------------------------------------|--------------------------------------------------|
D|--------------------------------------------------|--------------------------------------------------|
A|--3-----3-----3--3-----3--------3-----3-----3--5--|--------------------------2-----2--3-----3--4-----|
E|-----------3--------------3--5-----5--------------|--3-----3--0--3--3-----3--------------------------|


  1 e + a 2 e + a 3 e + a 4 e + a   1 e + a 2 e + a 3 e + a 4 e + a
G|--------------------------------------------------|--------------------------------------------------|
D|--------------------------------------------------|--------------------------------------------------|
A|--5-----5--3--5--5-----5--------3-----3--5--5--3--|--5-----5--3--5--5-----5--------3-----3--5--5--3--|
E|--------------------------3--5-----5--------------|--------------------------3--5-----5--------------|


Verse 2:

  1 e + a 2 e + a 3 e + a 4 e + a   1 e + a 2 e + a 3 e + a 4 e + a
G|--------------------------------------------------|--------------------------------------------------|
D|--------------------------------------------------|--------------------------------------------------|
A|--5-----5--3--5--5-----5--------3-----3--5--5--3--|--5-----5--3--5--5-----5--------3-----3--5--5--3--|
E|--------------------------3--5-----5--------------|--------------------------3--5-----5--------------|


  1 e + a 2 e + a 3 e + a 4 e + a   1 e + a 2 e + a 3 e + a 4 e + a
G|--------------------------------------------------|--------------------------------------------------|
D|--------------------------------------------------|--------------------------------------------------|
A|--5-----5--3--5--5-----5--------3-----3--5--5--3--|--5-----5--3--5--5-----5--------3-----3-----5-----|
E|--------------------------3--5-----5--------------|--------------------------3--5-----5--------------|


  1 e + a 2 e + a 3 e + a 4 e + a   1 e + a 2 e + a 3 e + a 4 e + a
G|--------------------------------------------------|--------------------------------------------------|
D|--------------------------------3-----3--5--5--3--|--5\----------------------------------------------|
A|--------------------------3--5-----5--------------|--------------------------2-----2--3-----3--4-----|
E|--3-----3--0--3--3-----3--------------------------|--------0--0--3--3-----3--------------------------|


  1 e + a 2 e + a 3 e + a 4 e + a   1 e + a 2 e + a 3 e + a 4 e + a
G|--------------------------------------------------|--------------------------------------------------|
D|--------------------------------------------------|--------------------------------------------------|
A|--5-----5--3--5--5-----5--------3-----3--5--5--3--|--5-----5--3--5--5-----5--------3-----3-----5-----|
E|--------------------------3--5-----5--------------|--------------------------3--5-----5--------------|


  1 e + a 2 e + a 3 e + a 4 e + a   1 e + a 2 e + a 3 e + a 4 e + a
G|--------------------------------------------------|--------------------------------------------------|
D|--------------------------------------------------|--------------------------------------------------|
A|--3-----3-----3--3-----3--------3-----3-----3--5--|--------------------------2-----2--3-----3--4-----|
E|-----------3--------------3--5-----5--------------|--3-----3--0--3--3-----3--------------------------|


  1 e + a 2 e + a 3 e + a 4 e + a   1 e + a 2 e + a 3 e + a 4 e + a
G|--------------------------------------------------|--------------------------------------------------|
D|--------------------------------------------------|--------------------------------------------------|
A|--5-----5--3--5--5-----5--------3-----3--5--5--3--|--5-----5--3--5--5-----5--------3-----3--5--5--3--|
E|--------------------------3--5-----5--------------|--------------------------3--5-----5--------------|


Solo 2:

  1 e + a 2 e + a 3 e + a 4 e + a   1 e + a 2 e + a 3 e + a 4 e + a
G|--------------------------------------------------|--------------------------------------------------|
D|--------------------------------------------------|--------------------------------------------------|
A|--5-----5--3--5--5-----5--------3-----3--5--5--3--|--5-----5--3--5--5-----5--------3-----3--5--5--3--|
E|--------------------------3--5-----5--------------|--------------------------3--5-----5--------------|


  1 e + a 2 e + a 3 e + a 4 e + a   1 e + a 2 e + a 3 e + a 4 e + a
G|--------------------------------------------------|--------------------------------------------------|
D|--------------------------------------------------|--------------------------------------------------|
A|--5-----5--3--5--5-----5--------3-----3--5--5--3--|--5-----5--3--5--5-----5--------3-----3-----5-----|
E|--------------------------3--5-----5--------------|--------------------------3--5-----5--------------|


  1 e + a 2 e + a 3 e + a 4 e + a   1 e + a 2 e + a 3 e + a 4 e + a
G|--------------------------------------------------|--------------------------------------------------|
D|--------------------------------3-----3--5--5--3--|--5\----------------------------------------------|
A|--------------------------3--5-----5--------------|--------------------------2-----2--3-----3--4-----|
E|--3-----3--0--3--3-----3--------------------------|--------0--1--3--3-----3--------------------------|


  1 e + a 2 e + a 3 e + a 4 e + a   1 e + a 2 e + a 3 e + a 4 e + a
G|--------------------------------------------------|--------------------------------------------------|
D|--------------------------------------------------|--------------------------------------------------|
A|--5-----5--3--5--5-----5--------3-----3--5--5--3--|--5-----5--3--5--5-----5--------3-----3-----5-----|
E|--------------------------3--5-----5--------------|--------------------------3--5-----5--------------|


  1 e + a 2 e + a 3 e + a 4 e + a   1 e + a 2 e + a 3 e + a 4 e + a
G|--------------------------------------------------|--------------------------------------------------|
D|--------------------------------------------------|--------------------------------------------------|
A|--3-----3-----3--3-----3--------3-----3-----3--5--|--------------------------2-----2--3-----3--4-----|
E|-----------3--------------3--5-----5--------------|--3-----3--0--3--3-----3--------------------------|


  1 e + a 2 e + a 3 e + a 4 e + a   1 e + a 2 e + a 3 e + a 4 e + a
G|--------------------------------------------------|--------------------------------------------------|
D|--------------------------------------------------|--------------------------------------------------|
A|--5-----5--3--5--5-----5--------3-----3--5--5--3--|--5-----5--3--5--5-----5--------3-----3--5--5--3--|
E|--------------------------3--5-----5--------------|--------------------------3--5-----5--------------|

  1 e + a 2 e + a 3 e + a 4 e + a   1 e + a 2 e + a 3 e + a 4 e + a
G|--------------------------------------------------|--------------------------------------------------|
D|--------------------------------------------------|--------------------------------------------------|
A|--5-----5--3--5--5-----5--------3-----3--5--5--3--|--5-----5--3--5--5-----5--------3-----3--5--5--3--|
E|--------------------------3--5-----5--------------|--------------------------3--5-----5--------------|


  1 e + a 2 e + a 3 e + a 4 e + a   1 e + a 2 e + a 3 e + a 4 e + a
G|--------------------------------------------------|--------------------------------------------------|
D|--------------------------------------------------|--------------------------------------------------|
A|--5-----5--3--5--5-----5--------3-----3--5--5--3--|--5-----5--3--5--5-----5--------3-----3-----5-----|
E|--------------------------3--5-----5--------------|--------------------------3--5-----5--------------|


  1 e + a 2 e + a 3 e + a 4 e + a   1 e + a 2 e + a 3 e + a 4 e + a
G|--------------------------------------------------|--------------------------------------------------|
D|--------------------------------3-----3--5--5--3--|--5\----------------------------------------------|
A|--------------------------3--5-----5--------------|--------------------------2-----2--3-----3--4-----|
E|--3-----3--0--3--3-----3--------------------------|--------0--1--3--3-----3--------------------------|


  1 e + a 2 e + a 3 e + a 4 e + a   1 e + a 2 e + a 3 e + a 4 e + a
G|--------------------------------------------------|--------------------------------------------------|
D|--------------------------------------------------|--------------------------------------------------|
A|--5-----5--3--5--5-----5--------3-----3--5--5--3--|--5-----5--3--5--5-----5--------3-----3-----5-----|
E|--------------------------3--5-----5--------------|--------------------------3--5-----5--------------|


  1 e + a 2 e + a 3 e + a 4 e + a   1 e + a 2 e + a 3 e + a 4 e + a
G|--------------------------------------------------|--------------------------------------------------|
D|--------------------------------------------------|--------------------------------------------------|
A|--3-----3-----3--3-----3--------3-----3-----3--5--|--------------------------2-----2--3-----3--4-----|
E|-----------3--------------3--5-----5--------------|--3-----3--0--3--3-----3--------------------------|


  1 e + a 2 e + a 3 e + a 4 e + a   1 e + a 2 e + a 3 e + a 4 e + a
G|--------------------------------------------------|--------------------------------------------------|
D|--------------------------------------------------|--------------------------------------------------|
A|--5-----5--3--5--5-----5--------3-----3--5--5--3--|--5-----5--3--5--5-----5--------3-----3--5--5--3--|
E|--------------------------3--5-----5--------------|--------------------------3--5-----5--------------|


Verse 3:

  1 e + a 2 e + a 3 e + a 4 e + a   1 e + a 2 e + a 3 e + a 4 e + a
G|--------------------------------------------------|--------------------------------------------------|
D|--------------------------------------------------|--------------------------------------------------|
A|--5-----5--3--5--5-----5--------3-----3--5--5--3--|--5-----5--3--5--5-----5--------3-----3--5--5--3--|
E|--------------------------3--5-----5--------------|--------------------------3--5-----5--------------|


  1 e + a 2 e + a 3 e + a 4 e + a   1 e + a 2 e + a 3 e + a 4 e + a
G|--------------------------------------------------|--------------------------------------------------|
D|--------------------------------------------------|--------------------------------------------------|
A|--5-----5--3--5--5-----5--------3-----3--5--5--3--|--5-----5--3--5--5-----5--------3-----3-----5-----|
E|--------------------------3--5-----5--------------|--------------------------3--5-----5--------------|


  1 e + a 2 e + a 3 e + a 4 e + a   1 e + a 2 e + a 3 e + a 4 e + a
G|--------------------------------------------------|--------------------------------------------------|
D|--------------------------------3-----3--5--5--3--|--5\----------------------------------------------|
A|--------------------------3--5-----5--------------|--------------------------2-----2--3-----3--4-----|
E|--3-----3--0--3--3-----3--------------------------|--------0--0--3--3-----3--------------------------|


  1 e + a 2 e + a 3 e + a 4 e + a   1 e + a 2 e + a 3 e + a 4 e + a
G|--------------------------------------------------|--------------------------------------------------|
D|--------------------------------------------------|--------------------------------------------------|
A|--5-----5--3--5--5-----5--------3-----3--5--5--3--|--5-----5--3--5--5-----5--------3-----3-----5-----|
E|--------------------------3--5-----5--------------|--------------------------3--5-----5--------------|


  1 e + a 2 e + a 3 e + a 4 e + a   1 e + a 2 e + a 3 e + a 4 e + a
G|--------------------------------------------------|--------------------------------------------------|
D|--------------------------------------------------|--------------------------------------------------|
A|--3-----3-----3--3-----3--------3-----3-----3--5--|--------------------------2-----2--3-----3--4-----|
E|-----------3--------------3--5-----5--------------|--3-----3--0--3--3-----3--------------------------|


  1 e + a 2 e + a 3 e + a 4 e + a   1 e + a 2 e + a 3 e + a 4 e + a
G|--------------------------------------------------|--------------------------------------------------|
D|--------------------------------------------------|--------------------------------------------------|
A|--5-----5--3--5--5-----5--------3-----3--5--5--3--|--5-----5--3--5--5-----5--------3-----3--5--5--3--|
E|--------------------------3--5-----5--------------|--------------------------3--5-----5--------------|


Verse 4:

  1 e + a 2 e + a 3 e + a 4 e + a   1 e + a 2 e + a 3 e + a 4 e + a
G|--------------------------------------------------|--------------------------------------------------|
D|--------------------------------------------------|--------------------------------------------------|
A|--5-----5--3--5--5-----5--------3-----3--5--5--3--|--5-----5--3--5--5-----5--------3-----3--5--5--3--|
E|--------------------------3--5-----5--------------|--------------------------3--5-----5--------------|


  1 e + a 2 e + a 3 e + a 4 e + a   1 e + a 2 e + a 3 e + a 4 e + a
G|--------------------------------------------------|--------------------------------------------------|
D|--------------------------------------------------|--------------------------------------------------|
A|--5-----5--3--5--5-----5--------3-----3--5--5--3--|--5-----5--3--5--5-----5--------3-----3-----5-----|
E|--------------------------3--5-----5--------------|--------------------------3--5-----5--------------|


  1 e + a 2 e + a 3 e + a 4 e + a   1 e + a 2 e + a 3 e + a 4 e + a
G|--------------------------------------------------|--------------------------------------------------|
D|--------------------------------3-----3--5--5--3--|--5\----------------------------------------------|
A|--------------------------3--5-----5--------------|--------------------------2-----2--3-----3--4-----|
E|--3-----3--0--3--3-----3--------------------------|--------0--0--3--3-----3--------------------------|


  1 e + a 2 e + a 3 e + a 4 e + a   1 e + a 2 e + a 3 e + a 4 e + a
G|--------------------------------------------------|--------------------------------------------------|
D|--------------------------------------------------|--------------------------------------------------|
A|--5-----5--3--5--5-----5--------3-----3--5--5--3--|--5-----5--3--5--5-----5--------3-----3-----5-----|
E|--------------------------3--5-----5--------------|--------------------------3--5-----5--------------|


  1 e + a 2 e + a 3 e + a 4 e + a   1 e + a 2 e + a 3 e + a 4 e + a
G|--------------------------------------------------|--------------------------------------------------|
D|--------------------------------------------------|--------------------------------------------------|
A|--3-----3-----3--3-----3--------3-----3-----3--5--|--------------------------2-----2--3-----3--4-----|
E|-----------3--------------3--5-----5--------------|--3-----3--0--3--3-----3--------------------------|


  1 e + a 2 e + a 3 e + a 4 e + a   1 e + a 2 e + a 3 e + a 4 e + a
G|--------------------------------------------------|--------------------------------------------------|
D|--------------------------------------------------|--------------------------------------------------|
A|--5-----5--3--5--5-----5--------3-----3--5--5--3--|--5-----5--3--5--5-----5--------3-----3--5--5--3--|
E|--------------------------3--5-----5--------------|--------------------------3--5-----5--------------|


Solo 3:

  1 e + a 2 e + a 3 e + a 4 e + a   1 e + a 2 e + a 3 e + a 4 e + a
G|--------------------------------------------------|--------------------------------------------------|
D|--------------------------------------------------|--------------------------------------------------|
A|--5-----5--3--5--5-----5--------3-----3--5--5--3--|--5-----5--3--5--5-----5--------3-----3--5--5--3--|
E|--------------------------3--5-----5--------------|--------------------------3--5-----5--------------|


  1 e + a 2 e + a 3 e + a 4 e + a   1 e + a 2 e + a 3 e + a 4 e + a
G|--------------------------------------------------|--------------------------------------------------|
D|--------------------------------------------------|--------------------------------------------------|
A|--5-----5--3--5--5-----5--------3-----3--5--5--3--|--5-----5--3--5--5-----5--------3-----3-----5-----|
E|--------------------------3--5-----5--------------|--------------------------3--5-----5--------------|


  1 e + a 2 e + a 3 e + a 4 e + a   1 e + a 2 e + a 3 e + a 4 e + a
G|--------------------------------------------------|--------------------------------------------------|
D|--------------------------------3-----3--5--5--3--|--5\----------------------------------------------|
A|--------------------------3--5-----5--------------|--------------------------2-----2--3-----3--4-----|
E|--3-----3--0--3--3-----3--------------------------|--------0--0--3--3-----3--------------------------|


  1 e + a 2 e + a 3 e + a 4 e + a   1 e + a 2 e + a 3 e + a 4 e + a
G|--------------------------------------------------|--------------------------------------------------|
D|--------------------------------------------------|--------------------------------------------------|
A|--5-----5--3--5--5-----5--------3-----3--5--5--3--|--5-----5--3--5--5-----5--------3-----3-----5-----|
E|--------------------------3--5-----5--------------|--------------------------3--5-----5--------------|


  1 e + a 2 e + a 3 e + a 4 e + a   1 e + a 2 e + a 3 e + a 4 e + a
G|--------------------------------------------------|--------------------------------------------------|
D|--------------------------------------------------|--------------------------------------------------|
A|--3-----3-----3--3-----3--------3-----3-----3--5--|--------------------------2-----2--3-----3--4-----|
E|-----------3--------------3--5-----5--------------|--3-----3--0--3--3-----3--------------------------|


Outro:

  1 e + a 2 e + a 3 e + a 4 e + a   1 e + a 2 e + a 3 e + a 4 e + a
G|--------------------------------------------------|--------------------------------------------------|
D|--------------------------------------------------|--------------------------------------------------|
A|--5-----------------------------------------------|--------------------------------------------------|
E|--------------------------------------------------|--------------------------------------------------|


  1 e + a 2 e + a 3 e + a 4 e + a   1 e + a 2 e + a 3 e + a 4 e + a
G|--------------------------------------------------|--------------------------------------------------|
D|--------------------------------------------------|--------------------------------------------------|
A|--------------------------------------------------|--------------------------------------------------|
E|--------------------------------------------------|--------------------------------------------------|


  1 e + a 2 e + a 3 e + a 4 e + a   1 e + a 2 e + a 3 e + a 4 e + a
G|--------------------------------------------------|--------------------------------------------------|
D|--------------------------------------------------|--------------------------------------------------|
A|--------------------------------------------------|--------------------------5--5--5--5--5--5--5--5--|
E|--------------------------------------------------|--------------------------------------------------|


  1 e + a 2 e + a 3 e + a 4 e + a   1 e + a 2 e + a 3 e + a 4 e + a
G|--------------------------------------------------|--------------------------------------------------|
D|--------------------------------------------------|--------------------------------------------------|
A|--5--5--5--5--5--5--5--5--5--5--5--5--5--5--5--5--|--5--5--5--5--5--5--5--5--5--5--5--5--5--5--5--5--|
E|--------------------------------------------------|--------------------------------------------------|


  1 e + a 2 e + a 3 e + a 4 e + a   1 e + a 2 e + a 3 e + a 4 e + a
G|--------------------------------------------------|--------------------------------------------------|
D|--------------------------------------------------|--------------------------------------------------|
A|--0--0--0--0--5--5--5--5--5--5--5--5--5--5--5--5--|--5--5--5--5--5--5--5--5--5--5--5--5--5--5--5--5--|
E|--------------------------------------------------|--------------------------------------------------|


  1 e + a 2 e + a 3 e + a 4 e + a   1 e + a 2 e + a 3 e + a 4 e + a
G|--------------------------------------------------|--------------------------------------------------|
D|--------------------------------------------------|--------------------------------------------------|
A|--5--5--5--5--5--5--5--5--5--5--5--5--5--5--5--5--|--5--5--5--5--5--5--5--5--5--5--5--5--5--5--5--5--|
E|--------------------------------------------------|--------------------------------------------------|


  1 e + a 2 e + a 3 e + a 4 e + a   1 e + a 2 e + a 3 e + a 4 e + a
G|--------------------------------------------------|--------------------------------------------------|
D|--------------------------------------------------|--------------------------------------------------|
A|--5--5--5--5--5--5--5--5--5--5--5--5--5--5--5--5--|--5--5--5--5--5--5--5--5--5-----------------------|
E|--------------------------------------------------|--------------------------------------------------|


  1 e + a 2 e + a 3 e + a 4 e + a   1 e + a 2 e + a 3 e + a 4 e + a
G|--------------------------------------------------|--------------------------------------------------|
D|--------------------------------------------------|--------------------------------------------------|
A|--------------------------------------------------|--------------------5-----------------------------|
E|--------------------------------------------------|--------------------------------------------------|


***********************************

| \  Slide down
| /  Slide up

***********************************

Almost there ...

Sign in to get your own page with links to favourite songs and more. You are just one click away...

Login with Facebook Login with Google