Log in

One click and you are in

Login with Facebook Login with Google

Why sign up and log in

Guitar Tabs Explorer
Jeff Healey chords for Angel

Guitar chords

hey yall i know this was origanaly by Hendrix but i have only heard Jeff's version so enjoy.

it uses open A chord diagramG+G tuning. (by the way thats (low to high)DGDGBD)

i wont include the strum patten you can work that out for yourselves (its easy just listen to the track)

b=bend up
/=slide
intro

----------------------------------------------
--4--2--4-/-9--/-11--4-2----------------------
--3--1--3-/-8--/-10--3-1----------------------
--5--3--5-/-10-/-12--5-3----------------------
--3--1--3-/-8--/-10--3-1----------------------
----------------------------------------------


Verse i believe is this:

---------------
--5--3--1------
--5--3--1------
--7--5--3------
--5--3--1------
---------------
and then has something extra like this but normaly i just improvise it

------------------------
------------------------
------1-3-3b-3b-1-------
--1-3--------------3-1--
------------------------
------------------------


chorus chords are:
---------
-9--5--3-
-9--5--3-
-9--5--3-
-9--5--3-
---------

right @ the very end of the chorus theres something i cant quite work out but again i improvise.
if any one knows the solo email to me at the address.

again enjoy

Other versions of Angel

Angel eyesChords
Angel eyesTabs

Almost there ...

Sign in to get your own page with links to favourite songs and more. You are just one click away...

Login with Facebook Login with Google