Adriana by Headstrong

Adriana tab by Headstrong

Guitar tabs

Artist: Headstrong
Song: Adriana
By: Dan Votipka
Tuning: Dropped D

This is my first tab, so that's why it's not very fancy.
I'm sure it's not exactly what Headstrong plays, but when
I play it with the song it sounds fine to me.
So if you have any suggestions feel free to e-mail me
at danvotipka@hotmail.com, just take it easy on me!!



Intro
E---------------------------------------------------------------
B---------------------------------------------------------------
G-----------7----------------7--10-----------------7------------
D--0--7--0-----10--0-0--7-0--------7-10---0--7--------10--0-0--7
A----------------------------------------------8---------------
D---------------------------------------------------------------



Riff 1
E------------------------------
B------------------------------
G---------------------7-10-----
D--0-0--7----0--0-7-0------7-10
A--------8-------------------
D------------------------------
  "Adriana...."



Riff 2
E------------------
B------------------
G------------------
D--0-0-10--0-0-10--
A------------------
D------------------
  "Go burn a hole..."
 Play 10x


Chorus
E-------------------------------------------------------------------------
B-------------------------------------------------------------------------
G--7/------------------7/------------------7/------------------7/--------5
D--7/0-0--5-3-0-5-3--0-7/0-0--5-3-0-5-3--0-5/0-0--5-3-0-5-3--0-5/0-0-3-5-5
A--5/0-0--5-3-0-5-3--0-5/0-0--5-3-0-5-3--0-5/0-0--5-3-0-5-3--0-5/0-0-3-5-3
D----0-0--5-3-0-5-3--0---0-0--5-3-0-5-3--0---0-0--5-3-0-5-3--0---0-0-3-5--

      | Riff 3
E----------|-------------------------
B----------|-------------------------
G----------|------7---------5--------
D-5-3-3-5--|0-5-7-7-7-5-0-3-5-5-3-3-5
A-5-3-3-5--|0-5-7-5-7-5-0-3-3-5-3-3-5
D-5-3-3-5--|0-5-7---7-5-0-3---5-3-3-5
      | "if I put my mind to it..."
      |<- Repeat from there 4x

Play Riff 1 then Riff 2 and the chorus like above next and after that...


Riff 4
E------------------
B------------------
G------------------
D--0-4-6-0-4-6--0--
A---------------0--
D---------------0--
         "Everyone..."
Play this 3x and hit the last note a few times the third time you play it,
then...


E--------------
B--------------
G--4-4-4-4-4-4-
D--4-4-4-4-4-4-
A--2-2-2-2-2-2-
D--------------
 Play this a bunch of times

E---------       ----------
B--2-2-2-2       ----------
G--2-2-2-2       ---3-3-3-3
D--2-2-2-2       ---3-3-3-3
A--0-0-0-0       ---1-1-1-1
D---------       ----------
 Same with this...    and this....


Then play the chorus again, and after the pretty singing part
with the drums "if I put my mind to it I can figure it out, and
if I put my mind to it I can figure it out" guitar comes back in
with this:

----------
----------
----------
---0-3-0-3
---0-3-0-3
---0-3-0-3

Then it's back to Riff 3 and that's all.

Find guitar tabs and chords

A B C D E F G H I J K L M N O P Q R S T U V W X Y Z #