Log in

One click and you are in

Login with Facebook Login with Google

Why sign up and log in

Guitar Tabs Explorer
Headstones chords for Reno

Guitar chords

This is an updated version by Greg Meckes from the original by:
Bryan Shiffman <bryans@interlog.com>
Group: The Headstones Reno by the Headstones


    Intro - Play 4 times                                Continued ....
E---||--------------------------------------|---------------------------
A---||--------------------------------------|---------------------------
G---||*-------------------------------------|---------------------------
D---||*-------------------------------------|---------------------------
G---||--------------------------------------|---------------------------
C---||--0--2--2--0--2--2--0--2--2--0--2--0--|---------------------------
    On 4th time, play -> A chord diagramG+G      3x  A chord diagramG+G
E-------------------------------||--3--||-------------------------------
A-------------------------------||--3--||-------------------------------
G------------------------------*||--0--||-------------------------------
D------------------------------*||--0--||-------------------------------
G-------------------------------||-----||-------------------------------
C---4--5--0--0------------------||--3--||-------------------------------


    Chorus                 "Well I'm going down..."        E1 A chord diagramD MajorD  E2  2x
E---||------------------------|-----------------------||---0-----------|
A---||------------------------|-----------------------||---0--7--9-----|
G---||*--7--7--7--7--7--7--7--|-----------------------||*--1--7--9-----|
D---||*--7--7--7--7--7--7--7--|--7--7--7--7--7--7--7--||*--2--7--9-----|
G---||---9--9--9--7--7--7--5--|--7--7--7--7--7--7--7--||---2--5--7-----|
C---||------------------------|--9--9--9--7--7--7--5--||---0-----------|


     Riff before bridge (3x then A chord diagramG+G on the 4th)  A chord diagramG+G
E---||--------------------------------------||---------
A---||--------------------------------------||--3------
G---||*------------------------------------*||--0------
D---||*------------------------------------*||--0------
G---||--------------------------------------||---------
C---||---0--2--0--2--0--2--0--2--0--4^--0---||--3------

    (Bridge)     Strum A chord diagramC#C# 12x        A chord diagramBB  A chord diagramA augmentedA  A chord diagramG+G     A chord diagramBB Strum 12x       A chord diagramBB
E---||---9------------------------|--7--5--3--|--7--------------|--7----
A---||---9------------------------|--7--5--3--|--7--------------|--7----
G---||*--10-----------------------|--8--6--4--|--8--------------|--8----
D---||*--11-----------------------|--9--7--5--|--9--------------|--9----
G---||---11-----------------------|--9--7--5--|--9--------------|--9----
C---||---9------------------------|--7--5--3--|--7--------------|--7----


    A chord diagramA augmentedA  A chord diagramBB   2x  Verse after the bridge, Play Intro muted
E---5--7---||-----------------------------------------------------------
A---5--7---||-----------------------------------------------------------
G---6--8--*||-----------------------------------------------------------
D---7--9--*||-----------------------------------------------------------
G---7--9---||-----------------------------------------------------------
C---5--7---||-----------------------------------------------------------


          Outro verse: Strum each chord 8x                A chord diagramC majorC  A chord diagramG+G  A chord diagramD MajorD  A chord diagramA augmentedA
E------|-----------------------------------------------------3-----5----
A------|--------------------------------------------------5--3--7--5----
G------|--------------------------------------------------5--4--7--6----
D------|--------------------------------------------------5--5--7--7----
G------|--------------------------------------------------3--5--5--7----
C------|-----------------------------------------------------3-----5----

Almost there ...

Sign in to get your own page with links to favourite songs and more. You are just one click away...

Login with Facebook Login with Google