Log in

One click and you are in

Login with Facebook Login with Google

Why sign up and log in

Guitar Tabs Explorer
Headstones bass tabs for Binthiswayforyears

Bass tabs

Verse                ("I Been Burned Out...")
G-----------------|-----------------|-----------------|-----------------|-----------------|-----------------|
D-----------------|-----------------|-----------------|-----------------|-----------------|-----------------|
A-----------------|-----------------|-----------------|-----------------|-----------------|-----------------|
E-7-7-----7-7---5~|-7-7-----7-7---5~|-7-7-----7-7---5~|-7-7-----7-7---5~|-7-7-----7-7---5~|-7-7-----7-7---5~|
Chorus ("There's Nobody Fading Away Here...")
G--------------------------------------------------------|
D--------------------------------------------------------|
A-0---------------2-2---2-2-0r-2-2---2-2-----------------|
E---------0------------------------------0-------3-------|

G---------------|---------------|---------------|---------------|
D-------7-7-----|-------7-7-----|-------7-7-----|-------7-7-----|
A-----------9-9-|-----------9-9-|-----------9-9-|-----------9-9-|
E-7-7-----------|-7-7-----------|-7-7-----------|-7-7-----------|


Verse ("It'll Live Forever...")
G-----------------|-----------------|-----------------|-----------------|-----------------|-----------------|
D-----------------|-----------------|-----------------|-----------------|-----------------|-----------------|
A-----------------|-----------------|-----------------|-----------------|-----------------|-----------------|
E-7-7-----7-7---5~|-7-7-----7-7---5~|-7-7-----7-7---5~|-7-7-----7-7---5~|-7-7-----7-7---5~|-7-7-----7-7---5~|


Chorus ("There Ain't Nobody Fading Away Here...")
G----------------------------------------------------------------------------------------|
D----------------------------------------------------------------------------------------|
A-0---------------2-2---2-2-0r-2-2---2-2-----------------5-------------------------------|
E---------0------------------------------0-------3---------------5-------0-------3-------|

                 ("Godamnit, Well It's Been This Way For Years...")
G---------------|---------------|-------------------------------------------------|
D-------7-7-----|-------7-7-----|-------------------------------------------------|
A-----------9-9-|-----------9-9-|----------------5--------------------------------|
E-7-7-----------|-7-7-----------|-0-------3---------------5-------0-------3-------|

Solo
G---------------|---------------|---------------|---------------|---------------|---------------|
D-------7-7-----|-------7-7-----|-------7-7-----|-------7-7-----|-------7-7-----|-------7-7-----|
A-----------9-9-|-----------9-9-|-----------9-9-|-----------9-9-|-----------9-9-|-----------9-9-|
E-7-7-----------|-7-7-----------|-7-7-----------|-7-7-----------|-7-7-----------|-7-7-----------|

G---------------|---------------|---------------------------------|
D-------7-7-----|-------7-7-----|---------------------------------|
A-----------9-9-|-----------9-9-|-----------------5-5-5-5---------|
E-7-7-----------|-7-7-----------|-0-0-0-0-3-3-3-3---------5-5-5-5-|


Verse ("I've Been Burned Out...")
G-----------------|-----------------|-----------------|-----------------|-----------------|-----------------|
D-----------------|-----------------|-----------------|-----------------|-----------------|-----------------|
A-----------------|-----------------|-----------------|-----------------|-----------------|-----------------|
E-7-7-----7-7---5~|-7-7-----7-7---5~|-7-7-----7-7---5~|-7-7-----7-7---5~|-7-7-----7-7---5~|-7-7------------~|


Chorus/Outro
G----------------------------------------------------------------------------------------|
D----------------------------------------------------------------------------------------|
A-0---------------2-2---2-2-0r-2-2---2-2-----------------5-------------------------------|
E---------0------------------------------0-------3---------------5-------0-------3-------|

G---------------|---------------|---------------|---------------|---------------------------------|
D-------7-7-----|-------7-7-----|-------7-7-----|-------7-7-----|---------------------------------|
A-----------9-9-|-----------9-9-|-----------9-9-|-----------9-9-|-----------------5-5-5-5---------|
E-7-7-----------|-7-7-----------|-7-7-----------|-7-7-----------|-0-0-0-0-3-3-3-3---------5-5-5-5-|

G-----------------|---------------|---------------|---------------|---------------|
D-----------------|-------7-7-----|-------7-7-----|-------7-7-----|-------7-7-----|
A-----------------|-----------9-9-|-----------9-9-|-----------9-9-|-----------9-9-|
E-0-0-0-0-3-3-3-3-|-7-7-----------|-7-7-----------|-7-7-----------|-7-7-----------|

G---------------------------------|---------------------------------|-----------------|
D---------------------------------|---------------------------------|-----------------|
A-----------------5-5-5-5---------|-----------------5-5-5-5---------|-----------------|
E-0-0-0-0-3-3-3-3---------5-5-5-5-|-0-0-0-0-3-3-3-3---------5-5-5-5-|-0-0-0-0-3-3-3-3-|


~= Vibrato

Almost there ...

Sign in to get your own page with links to favourite songs and more. You are just one click away...

Login with Facebook Login with Google