Log in

One click and you are in

Login with Facebook Login with Google

Why sign up and log in

Guitar Tabs Explorer
Headstones chords for Anything

Guitar chords with lyrics

CHORDS FOR "ANYTHING"
 (SECRET TRACK FROM SMILE AND WAVE)
 BY THE HEADSTONES
 Transcribed by Matthew Hansen

 INTRO, VERSE, AND CHORUS:

           A chord diagramD MajorD   A chord diagramCadd9Cadd9  A chord diagramG+G  A chord diagramD MajorD

        e--2----3----3---2
	  B--3----3----3---3
	  G--2----0----0---2
	  D--0----2----0---0
	  A-------3----2----
	  E------------3----

 PRE-CHORUS:(you want more, I'll figure out how to get it...)

	     A chord diagramE minorEm   A chord diagramG+G    A chord diagramA augmentedA    A chord diagramA augmentedA
	  e--0----3----0----0
	  B--0----3----2----2
	  G--1----0----2----2
	  D--2----0----2----2
	  A--2----2----0----0
        E--0----3----------

 Lyrics:

 intro(play intro 2X)

 1st Verse:

 there ain't no ....

 pre-chorus 1:

 you want more...

 chorus:

 I'd give you ...

 2nd verse:

 I'd give you anything...

 pre-chorus 2:

 well you may need a ...

 chorus

 solo:
 play intro/verse/chorus 2X
 play pre-chorus 2X

 3rd verse:

 punch in a phone ...

 pre-chorus 1+2

 chorus

 ending:
 keep repeating chorus untill he stops singing
 then play this:

   A chord diagramCadd9Cadd9  A chord diagramG+G   A chord diagramD MajorD
 e--3-----3---2--
 B--3-----3---3--
 G--0-----0---2--
 D--2-----0---0--
 A--3-----2------
 E--------3------


 This is a cool song from a killer album
 and it's pretty easy to play, the timing
 is pretty easy to get after listning to
 the song a few times.

Almost there ...

Sign in to get your own page with links to favourite songs and more. You are just one click away...

Login with Facebook Login with Google