Log in

One click and you are in

Login with Facebook Login with Google

Why sign up and log in

Guitar Tabs Explorer
Gemma Hayes tabs for Tear in my side

Guitar tabs

Title: Tear In My Side
Album: Night On My Side (2002)

tabbed by scef (email funnell_teen_spirit@yahoo.com)

intro (use downstrokes throughout)
e-0--0--0--0--0--0--0--0--|-0--0--0--0--0--0--0--0--|
B-0--0--0--0--0--0--0--0--|-0--0--0--0--0--0--0--0--|
G-0--0--0--0--0--0--0--0--|-0--0--0--0--0--0--0--0--|
D-2--2--2--2--2--2--2--2--|-2--2--2--2--2--2--2--2--|
A-3--3--3--3--3--3--3--3--|-3--3--3--3--3--3--3--3--|
E-------------------------|-------------------------|

e-0--0--0--0--0--0--0--0--|-0--0--0--0--0--0--0--0--|
B-1--1--1--1--1--0--0--0--|-0--0--0--0--0--0--0--0--|
G-2--2--2--2--2--2--2--2--|-2--0--0--0--0--0--0--0--|
D-2--2--2--2--2--2--2--2--|-2--2--2--2--2--2--2--2--|
A-0--0--0--0--0--0--0--0--|-0--0--0--0--0--0--0--0--|
E-------------------------|-------------------------|


main riff
e-0--0--0--0--0--0--0--0--|-0--0--0--0--0--0--0--0--|
B-0--0--0--0--0--0--0--0--|-0--0--0--0--0--0--0--0--|
G-0--0--0--0--0--0--0--0--|-0--0--0--0--0--0--0--0--|
D-2--2--2--2--2--2--2--2--|-2--2--2--2--2--2--2--2--|
A-3--3--3--3--3--3--3--3--|-3--3--3--3--3--3--3--3--|
E-------------------------|-------------------------|

e-0--0--0--0--0--0--0--0--|-0--0--0--0--0--0--0--0--|
B-1--1--1--1--1--1--1--1--|-1--1--1--1--1--1--1--1--|
G-2--2--2--2--2--2--2--2--|-2--2--2--2--2--2--2--2--|
D-2--2--2--2--2--2--2--2--|-2--2--2--2--2--2--2--2--|
A-0--0--0--0--0--0--0--0--|-0--0--0--0--0--0--0--0--|
E-------------------------|-------------------------|

the whole song is basically the main riff above, short
of the "i feel it" bit but here the basic chords are
the same, just strummed less. occasionally there's
some my bloody valentine-esque feedback riffing over
the top which is kinda tricky to work out spot on, so
just experiment in the A chord diagramC majorC scale, listen to the song and
see what works best for you. that's it, how good a
song is that ?

Other versions of Tear In My Side

Tear in My SideChords

Almost there ...

Sign in to get your own page with links to favourite songs and more. You are just one click away...

Login with Facebook Login with Google