Day One by Gemma Hayes

Day One tab by Gemma Hayes

Guitar tabs

Title: Day One
Artist: Gemma Hayes
Album: Night On My Side
Tabbed By: Nuala Maguire -
Artist Homepage: http://www.gemmahayes-makingwaves.net



-------------------
| ACOUSTIC GUITAR |
-------------------

[CHORUS:]

D        G
Oh good god what has he done...


And it goes on like this, alternating between D and G.
Occassionally play the G like this:

    o o
  E_A_D_G_B_e
1 |_|_|_|_|_|
2 |_o_|_|_|_|    no idea what that's called, but I'm
3 o_|_|_|_o_|    guessing it's some version of G9.
4 |_|_|_|_|_|
5 |_|_|_|_|_o


[MIDDLE SECTION:]

  F#m     Em      F#m    Em
But oh it ain't so bad, I can still make  you laugh

F  Em        D
... I... I'm on your side

(for the F chord just play 8 heavy downstrokes on the beat)


[OUTRO:]

Again, back to the G and D with occassional pseudo G9 chord.

~*~*~*~*~*~*~*~*~*~*~*~*~*~*~*~*~*~*~*~*~*~*~*~*~*~*~*~*~*~*

---------------
| LEAD GUITAR |
---------------

Use slight distortion and lots of vibrato throughout.

[CHORUS:]

  ...bat to clear...   ...to pray...
e|-----------------------|---------------|
B|-----------------------|---------------|
G|-9/11--11h9--7-----7---|---------------|
D|---------------7h9-----|-----7-7-------|
A|-----------------------|---------------|
E|-----------------------|---------------|



e|---------------------------|------------------------|
B|---------------------------|------------------------|
G|--11-11---11/9--7------7---|------7-7--9-7--11-7-7--|
D|-------------------7h9-----|--7h9-------------------|
A|---------------------------|------------------------|
E|---------------------------|------------------------|


[MIDDLE SECTION:]

Just play the same chords as the acoustic but with heavy distortion and emphasis on downstrokes on the lower strings.

[OUTRO:]


...on your side...
e|--------------------------------------|-------------------------|
B|--------------------------------------|-------------------------|
G|-----------------9/11--11h9--7-----7--|------7----9-7--11--7-7--|
D|-------------------------------7h9----|--7h9--------------------|
A|--------------------------------------|-------------------------|
E|--------------------------------------|-------------------------|


e|--------------------------|-----------------------|--------|
B|------12------------------|-----------------------|--------|
G|--11------11/9--7------7--|--------7--9--11--7-7--|--7/11--|
D|-------------------7h9----|--7--9-----------------|--------|
A|--------------------------|-----------------------|--------|
E|--------------------------|-----------------------|--------|
--

Find guitar tabs and chords

A B C D E F G H I J K L M N O P Q R S T U V W X Y Z #