Log in

One click and you are in

Login with Facebook Login with Google

Why sign up and log in

Guitar Tabs Explorer
Gemma Hayes tabs for Back of my hand   acoustic

Guitar tabs with lyrics

Title: Back Of My Hand
Album: Night On My Side (2002)

Tabbed by Ester Pugliese <ester_pugliese@hotmail.com>

This version is pretty easy once you get the capo in the right place. I tabbed it by watching a live acoustic version. Enjoy! EP
------------------------

Gemma Hayes - Back of My Hand

Guitar 1:

drop A chord diagramD MajorD tuning
capo on 8th
intro	   verse		     chorus
e--0---0-|--0-(11)--0---0------|--11---0-------0-------0-------|
B--11--0-|--9-------9---0------|--9----0-------9--(0)--9--(0)--|
G--10--0-|--10------0---0-(10)-|--10---10-(0)--0-------10-(0)--|
D--0---0-|--11------11--0------|--11---0-------10-(0)--0-------|
A--0---0-|--0-------0---10-----|--0----10------11------11------|
E--0---0-|--0-------11--10-----|--0----10------11------11------|


Guitar 2:

regular tuning
capo on 1st

(hint: for the 'intro' alternate really quickly between first and second chords)


intro	          verse		        chorus
e--0--4----0--0--|--0------0---0-------|--0-----0---0----|
B--2--0----2--2--|--2------2---2-------|--2-----2---2----|
G--3--3----0--0--|--3------0---0-------|--3-----0---0----|
D--3--3----3--0--|--3------3---0-------|--3-----0---3----|
A--0--0----4--3--|--0------4---3-------|--0-----3---4----|
E--0--0----x--x--|--0------x---x-------|--0-----x---x----|

Verse 1:
I'll be seeing you tomorrow
I'll be seeing you again
God knows we've said so little
I'd go so far as to call you a friend

But there's something in your ways
That keeps me vying for a connection
And I know you feel the same
It's become a two-way addiction


Chorus:
Come on and give me your heart
Write it on the back of my hand
And say it's forever


Verse 2:
Well we never really said goodbye
Kinda left it in the air
And as the train pulled off I knew you loved her more

Oh no no no no
I'm not afraid to lose
Oh no no no no
Just give me some time and I'll walk to a different groove


Chorus:
Go on and give her your heart
Write it on the back of her hand
And say it's forever

Go on and give her your heart
Write it on the back of her hand
And say it's forever


Verse 3:
That's alright, that's ok, the thoughts of you are leaving
That's alright, that's ok, the thoughts of you are leaving
Anyway, are fading anyway


Chorus:
Come on and give her your heart
Write it on the back of her hand
And say it's forever

Come on and give me your heart
Come on and give me your heart
Come on and give me your heart

Other versions of Back Of My Hand Acoustic

Back of my handTabs

Almost there ...

Sign in to get your own page with links to favourite songs and more. You are just one click away...

Login with Facebook Login with Google