Log in

One click and you are in

Login with Facebook Login with Google

Why sign up and log in

Guitar Tabs Explorer
Haydn Franz Joseph tabs for Ballo tedesco

Guitar tabs

transcribed by Stan A.

Dedicated to my friends, and my class mates. ~*
"As soon as you trust yourself, you will know how to live."
  --  Johann Wolfgang von Goethe

For reference, you will find the piano(midi)
version of this song on my personal web
page. www.geocities.com/stanislaw_alam/index.html
e|-------------------------|------------------------|--------------------
A chord diagramBB|-3------------2-----0----|------------------------|-0------------------
A chord diagramG+G|-------------------------|-2-----2-----1----2-----|--------------------
A chord diagramD MajorD|-------------------------|------------------------|--------------------
A chord diagramA augmentedA|-------------------------|------------------------|--------------------
A chord diagramE MajorE|--------2-----3----------|-2-----1----------2-----|-3------0-----------
1                         2                        3
0----------|------------------------|-------------------------|---------
------3----|-2------0----2----------|-3------------2-----0----|---------
-----------|------------------2-----|-------------------------|-2-------
-----------|------------------------|-------------------------|---------
-----------|-0----------------------|-------------------------|---------
4----------|------------------------|--------2-----3----------|-2-------
           4                        5                         6


-----------------|------------------0---------------|-------------------
-----------------|-0-----2----3----------2----------|-3-----------------
2-----1----2-----|-----------------------------2----|-------------------
-----------------|----------------------------------|-0-----------------
-----------------|-----------------------0----------|--------0----------
1----------2-----|-3----------0---------------------|-------------------
                 7                                  8

2-----|-0-----0----2----3-----|--3-----2-----0-----|--2-----2----3------
------|-----------------------|--------------------|--------------------
------|-2---------------------|--------------------|--2-----------------
------|------------0----2-----|--2-----0-----------|--0-----0----2------
------|-4-----4---------------|--------------4-----|--------------------
------|-----------------------|--------------------|--------------------
      9                       10                   11


5-----|--5------2-----|--0-----0----2----3-----|--3-----2-----0-----|---
------|---------------|------------------------|--------------------|---
------|---------------|--2---------------------|--------------------|---
4-----|--4------0-----|-------------0----2-----|--2-----0-----------|---
------|---------------|--4-----4---------------|--------------4-----|---
------|---------------|------------------------|--------------------|---
      12              13                       14
15


2-----5-----------|---------------------|e
------------2-----|--3------------3-----|A chord diagramBB
2-----------2-----|---------------------|A chord diagramG+G
0-----4-----------|--0------------------|A chord diagramD MajorD
------------------|---------0-----------|A chord diagramA augmentedA
------------------|---------------------|A chord diagramE MajorE
                  16

Almost there ...

Sign in to get your own page with links to favourite songs and more. You are just one click away...

Login with Facebook Login with Google