Log in

One click and you are in

Login with Facebook Login with Google

Why sign up and log in

Guitar Tabs Explorer
Hayden tabs for You were loved

Guitar tabs

Title: You Were Loved
Album: Everything I long for

Clean Electric, with tremolo
Intro/Verses

Listen for exact rhythm and repeats.

  A chord diagramG+G              A chord diagramCadd9Cadd9  A chord diagramD MajorD

e--3-3--3-3-------3-3----5-5--------------------------------------------
b--3-3--3-3-------3-3----5-5--------------------------------------------
g--0-0--0-0-------0-0----0-0--------------------------------------------
d--0-0--0-0-------2-2----4-4--------------------------------------------
a--2-2--2-2--0h2--3-3----5-5--------------------------------------------
e--3-3--3-3-------------------------------------------------------------


Chorus

Listen for exact rhythm and repeats.
There is some variation, but its all one chord.

   A chord diagramFF

e----------------------------------------------------1------------------
b--------1-----------1-----------1-----------1-------1------------------
g------2---2-------2---2-------2---2-------2---2-----2------------------
d------------3-----------3-----------3-----------3---3------------------
a----3-----------3-----------3-----------3-----------3------------------
e--1-----------1-----------1-----------1-------------1------------------


Noises: According to a Hayden interview I read, he threw his
Fender Mustang down some stairs. I wouldn't recommend this.

I posted this because it sounds closer in the chorus than the other
version, and seeing where the hammer on is will probably help some
people.

Questions, Comments to: scott_houle@hotmail.com

Other versions of You Were Loved

You were lovedChords

Almost there ...

Sign in to get your own page with links to favourite songs and more. You are just one click away...

Login with Facebook Login with Google