Log in

One click and you are in

Login with Facebook Login with Google

Why sign up and log in

Guitar Tabs Explorer
Hayden chords for The hazards of sitting beneath palm trees

The Hazards Of Sitting Beneath Palm Trees chords by Hayden

Hayden chords for The hazards of sitting beneath palm trees

Guitar chords

Hayden - The Hazards of sitting beneath palm trees
         (I apologize if the titles incorrect, I
          gave the album to my girlfriend three years
          ago and haven't seen it since)

Standard Tuning

Intro/Verses

Listen to the song for the exact rhythm, and repeats.

     A chord diagramD MajorD        A chord diagramBB   A chord diagramF#F#

e-----------------2-2-2----2-2-2----------------------------------------
b----7-7-7----4---2-2-2----2-2-2----------------------------------------
g----7-7-7----4---3-3-3----3-3-3----------------------------------------
d----7-7-7----4---4-4-4----4-4-4----------------------------------------
a----5-5-5----2---4-4-4----4-4-4----------------------------------------
e-----------------2-2-2----2-2-2----------------------------------------


Chorus

Listen to the song for the exact rhythm, and repeats.

   A chord diagramG+G             A chord diagramE MajorE

e--3-3--0-0-0----0-0--0-0-0---------------------------------------------
b--3-3--0-0-0----0-0--0-0-0---------------------------------------------
g--4-4--4-4-4----1-1--1-1-1---------------------------------------------
d--5-5--5-5-5----2-2--2-2-2---------------------------------------------
a--5-5--5-5-5----2-2--2-2-2---------------------------------------------
e--3-3--3-3-3----0-0--0-0-0---------------------------------------------

This is the way Hayden plays it live, so it may not be exactly
how it sounds on the album, but its the same chords.

Questions, Comments to: scott_houle@hotmail.com

Almost there ...

Sign in to get your own page with links to favourite songs and more. You are just one click away...

Login with Facebook Login with Google