Log in

One click and you are in

Login with Facebook Login with Google

Why sign up and log in

Guitar Tabs Explorer
Hayden tabs for Middle of july

Guitar tabs

From boatwrx@vaxxine.com Mon May 12 13:59:11 1997

Middle of July, by Hayden


This song by Hayden is actually in standard tuning.

<=strum down, >=strum up

-3-3--3--3--3-------3-------
---2--2--2--2--0h2--2--0h2--
---0--0--0--0-------0-------       play this twice
---0--0--0--0-------0-------
---3--3--3--3-------3-------
---3--3--3--3-------3-------
   <  >  <  >       >

A chord diagramG+G                     A chord diagramE minorEm                A chord diagramC majorC   C2    A chord diagramC majorC       A chord diagramG+G
A chord diagramG+G                     A chord diagramE minorEm                A chord diagramC majorC   C2    A chord diagramC majorC       A chord diagramG+G

-----------------------------
--------3------2-------0-----
-----------------------2-----
------------------------3---3
------------3-------3------3-
----------3-------3-------3-- A chord diagramG+G
     ...feel   so     good  inside...

--------------------------
--------3-----2----0------
-------------------2------
--------------------3---3-
-----------3-----3-----3--
----------3-----3-----3--- A chord diagramD MajorD

----------------------------
--------3-----2-----0-------
--------------------2-------
---------------------3---3--
-----------3-----3------3---
----------3-----3------3----

----------------------------
---------3-----2------0-----
----------------------2-----
-----------------------3--3-
------------3------3-----3--
-----------3------3-----3---    A chord diagramG+G

then repeat the whole thing:

**thats it, hopefully you can figure it out by what i've done, if
you have any trouble, try it with the CD**

Other versions of Middle Of July

Middle of julyChords

Almost there ...

Sign in to get your own page with links to favourite songs and more. You are just one click away...

Login with Facebook Login with Google