Log in

One click and you are in

Login with Facebook Login with Google

Why sign up and log in

Guitar Tabs Explorer
Hayden tabs for Between us to hold

Guitar tabs

Song Hayden - Between Us to Hold

This is a great song by a great man and it isn't too hard.


Tuning-Standard

Chords - A chord diagramC majorC A chord diagramD MajorD A chord diagramA minorAm A chord diagramG+G     G/C[032033] B/G[020033]

E-------0-0---------0-0-------0-0-------0-0---
B---------------------------------------------
G---------------------------------------------
D-5-5---------4-4--------2-2-------0-0--------
A---------------------------------------------
E---------------------------------------------
                    And I Taught U To...

    G/c     B/g      A chord diagramD MajorD [fill one]
Guitar last night

 Repeats
Chourse
      A chord diagramA minorAm   A chord diagramC majorC    A chord diagramG+G          A chord diagramD MajorD
And i held your arm as you hit the strings i

A chord diagramA minorAm     A chord diagramC majorC    A chord diagramG+G                A chord diagramD MajorD               A chord diagramA minorAm
pushed your fingers back and started to sing

A chord diagramD MajorD        A chord diagramA minorAm
Sing....


____Fill One____

Put your fingers into a A chord diagramD MajorD chord and play

E-----2--------------
B-------------------
G-0-2-----------------
D-------------------
A-------------------
E-------------------

ⓘ Guitar tab for 'Between Us To Hold' by Hayden, a male alternative country artist from Thornhill, Canada. Hayden was born in 1971.

Almost there ...

Sign in to get your own page with links to favourite songs and more. You are just one click away...

Login with Facebook Login with Google