Log in

One click and you are in

Login with Facebook Login with Google

Why sign up and log in

Guitar Tabs Explorer
Hayden tabs for Bad as they seem

Guitar tabs with lyrics

TUNING:  Tune Guitar down a whole step(Or the three lowest strings).
         THEN tune down the low string to from a A chord diagramD MajorD to an Ab(i kid you not!)
         It rattles like a bitch, but thats how its supposed to sound.
Tab:     Carlos Bustos,  cab144@mail.usask.ca

[Main Riff]: Repeat
||------------------------------------------------------------------------|
||------------------------------------------------------------------------|
||------------------------------------------------------------------------|
||-----------------------------------------------------0------------------|
||--2--2--2--2-2-/-5--5--5--5-5-0--0--0--0-0-0h2-0-0h2--------------------|
||--0--0--0--0-0---0--0--0--0-0-0--0--0--0-0-0-----0----------------------|


[Chorus]: Repeat
||-----------------------------|
||-----------------------------|
||-----------------------------|
||--0------------0-------------|
||--7--7--7--7-7-9--9--9--9-9--|
||--8--8--8--8-8-10-10-10-1010-|

[to end]:
||--------------------------|
||--------------------------|
||--------------------------|
||-----------------------0--|
||-2--2--0h2-0-0h2-0-0h2----|
||-3--3--3-----3-----3------|


[Main Riff]

[chorus]

[Main Riff]

[chorus]

Please mail me if you play it different, or have the rest of the song.


	Re: Carlos Bustos' tab for hayden's 'Bad As They Seem', I don't think
it sounds right at all the way he has it tabbed.  Here's my impression of how
the song should sound:

	First, tune down the A chord diagramD MajorD and A chord diagramA augmentedA strings one full step, and then tune the
low A chord diagramE MajorE down to a G, not an Ab.  Now the two low strings should sound exactly
one octave apart, in G.

	A chord diagramE MajorE|-------
	A chord diagramBB|-------
	A chord diagramG+G|-------
	A chord diagramC majorC|-------
	A chord diagramG+G|-------
	A chord diagramG+G|-------

	The introduction of the tab is correct and sounds perfect with the
low string modification, but there needs to be a slight change in the chorus
and 'end' sections.  Instead of playing the verse on the 7th and 8th frets,
then the 9th and 10th frets, you should play the A chord diagramA augmentedA string (now A chord diagramG+G) at the 7th,
but the A chord diagramE MajorE (now A chord diagramG+G) at the 10th.  And then play the A chord diagramA augmentedA string at the 9th, but
the A chord diagramE MajorE string at the 12th.  As well, in the transition or 'end' part, instead
of 2nd and 3rd fret, play 2nd and 5th fret.  (Essentially you're just playing
all the notes on the low A chord diagramG+G string two frets higher.)

	I'm sure you'll find this a lot better, and also a lot easier to tune
in and out from.

Other versions of Bad As They Seem

Bad as they seemChords

Almost there ...

Sign in to get your own page with links to favourite songs and more. You are just one click away...

Login with Facebook Login with Google