GuitarTabsExplorer icon
GuitarTabsExplorer icon

Log in

Songbook

  • Log in to add and see bookmarks

Last visited songs

  • No songs visited yet...
The Fifth Second Of Forever by Hawkwind

The Fifth Second Of Forever tab by Hawkwind

Tabs

hawkwind - the fifth second of forever
      from the album 'levitation'
      transcribed by
      [email protected]

      intro

      e|------------------------------------------------------
      b|-8p6--8/10--10p9--10-12-----8p6--8/10--5---b6---b5----
      g|------------------------------------------------------
      d|-0--------------------------0-------------------------
      a|-----------------------------------------------0------
      e|------------0------------0-------------0---------0----

      e|---------------------------------------------12-------
      b|-8p6--8/10--10p9--10-12-----13-p12-p10----------------
      g|------------------------------------------------------
      d|-0----------------------------------------------------
      a|----------------------------0-----------0-------------
      e|------------0-----------------------------------------

      e|---------------------------------------------12-------
      b|-12--13p12p11/9-------------13-p12-p10----------------
      g|------------------------------------------------------
      d|------------------------------------------------------
      a|----------------------------0-----------0-------------
      e|-0----------------------------------------------------

      e|---------------------------------------------12-------
      b|-12---b13-b12---------------13-p12-p10----------------
      g|------------------------------------------------------
      d|------------------------------------------------------
      a|----------------------------0-----------0-------------
      e|-0----------------------------------------------------

      e|---------------------------------------------12-------
      b|-12--13p12p11/9-------------13-p12-p10----------------
      g|------------------------------------------------------
      d|------------------------------------------------------
      a|----------------------------0-----------0-------------
      e|-0----------------------------------------------------

      e|-16--12--13--10--12--8--10--7-------------------------
      b|------------------------------------------------------
      g|------------------------------------------------------
      d|-------------------------------     and repeat once
      a|------------------------------------------------------
      e|-0----------------------------------------------------

[ Privacy | About us ]

Welcome to the guitar community

Why join and log in?
- Get songbook with favourite songs
- Get custom made front page
- Submit chords and tabs
- Submit guitar-cover videos
- Get a lot of thumbs up for your work

Songbook

Last visited songs

Site
Home
Search
Community
Submit chords

Video

No video for this page. Check out how you can submit guitar-cover videos here

Search tabs and chords

Browse by artist

A B C D E F G H I J K L M N O P Q R S T U V W X Y Z #


Menu

Search

Video

Bookmark

Login