Log in

One click and you are in

Login with Facebook Login with Google

Why sign up and log in

Guitar Tabs Explorer
Hawkwind bass tabs for Assault   battery

Bass tabs

Intro:
  E    G    F#   A
  G----9-9-----9-9-----9-9-----9-9--+
  D---9-9-9---9-9-9---9-9-9---9-9-9-|
  A-7-------7-------7-------7-------|
  E---------------------------------+
Verse:
------
  E    G    F#   A
  G---------------------------------+
  D---------------------------------|
  A---------------------------------|
  E-0-0-0-0-33--33--2-2-2-2-555-753-+
  (Lives of great men...)


Chorus:
-------
  D    C    F#   B
  G---------------------------------+
  D---------------------------------|
  A-5-5-5-5-33--33----------2-22-22-|
  E-----------------2-2-2-2---------+
  (So your thoughts...)

  F#   B    A
  G---------------------------------+
  D---------------------------------|
  A---------2-22-22-0-00-00----3-0--|
  E-2-2-2-2------------------3------+
  (assault and battery...)

ⓘ Bass guitar tab for 'Assault Battery' by Hawkwind, a progressive rock band formed in 1969 from Ladbroke Grove, England, UK. Hawkwind is known for their gritty rock/pop music.

Almost there ...

Sign in to get your own page with links to favourite songs and more. You are just one click away...

Login with Facebook Login with Google