Log in

One click and you are in

Login with Facebook Login with Google

Why sign up and log in

Guitar Tabs Explorer
Simon Hawkins chords for Dark seductive eyes

Guitar chords

Dark Seductive Eyes - simon j hawkins

from "this cage i made myself"

Capo Second Fret(all tabs are relative to capo)
This is the chord progression that plays through the entire song

|0-------|0-------|0-------|0-------|
|0-------|0-------|0-------|0-------|
|1-------|4-------|0-------|0-------|
|2-------|5-------|4-------|2-------|
|2-------|5-------|5-------|3-------|
|0-------|0-------|5-------|3-------|

there are a lot of over dub guitar parts, repeat parts and solos,
playing over this throughout the song.

i have tabbed a few of them


this plays over the first verse of the song
|--------|--------|--------|--------|
|--------|--------|--------|--------|
|--------|--------|--------|--------|
|--------|6-7-9---|9---7---|--------|
|7---9---|--------|--------|7-------|
|--------|--------|--------|--------|


and overlaps into this
|--------|--------|--------|--------|
|--------|--------|--------|--------|
|--------|--------|--------|--------|
|--------|--------|7-------|9-------|
|7-------|10------|--------|--------|
|--------|--------|--------|--------|


in the vocal break this solo plays

|--------|--------|--------|--------|
|--------|--------|--------|--------|
|--8h9h8-|--------|--------|--------|
|9-------|9-------|6-7/----|12------|
|--------|--------|--------|--------|
|--------|--------|--------|--------|


-----------------
SEAN BRENNAN
brennan_manick@hotmail.com
-----------------

Almost there ...

Sign in to get your own page with links to favourite songs and more. You are just one click away...

Login with Facebook Login with Google