Log in

One click and you are in

Login with Facebook Login with Google

Why sign up and log in

Guitar Tabs Explorer
Miku Hatsune bass tabs for Karakuri pierrot

Bass tabs

Intro: - Rest until 0:09
G|-----|-----------------|-----------------|------------------|------------------|
D|-----|-----------------|----3------------|------------------|----3---------8---|
A|3/9\3|3---3--------3-2-|1-1---1------6-5-|3-3--3--------3---|1-1---1-3/6-6---5-|
E|-----|---3-3-1-1-1-----|-----------6-----|----3-3-1-1-1---1-|------------------|
B|-----|-----------------|---------4-------|------------------|------------------|

G|------------------|-------------------|------------------|---------------------|
D|------------------|----0-3--1-1---1-0-|------------------|----3---------8-8/13\|
A|3-3--3--------3---|1-3----------1-----|3-3--3--------3-2-|1-1---1-3/6-6--------|
E|----3-3-1-1-1---1-|-------------------|----3-3-1-1-1-----|---------------------|
B|------------------|-------------------|------------------|---------------------|


Verse 1: - 0:30
(Add dead/ghost notes as appropriate)
G|-------------|-------------|-------------|-----------|
D|-------------|-------------|-------------|-----------|
A|3\-----------|----6-x-6-6-5|3\-----------|----6---6-5|
E|----5-x-5-5-5|4\-----------|----5-x-5-5-5|4-6----6---|
B|-------------|-------------|-------------|-----------|

G|-------------|-------------|-------------|------------|
D|-------------|-------------|-------------|------------|
A|3\-----------|----6-x-6-6-5|3\-----------|----6-------|
E|----5-x-5-5-5|4\-----------|----5-x-5-5-5|4-6-----6---|
B|-------------|-------------|-------------|------------|



Pre-Chorus: - 0:49
G|-----------|--------|--------|--------|
D|-------4h6-|5-------|3-3-5-5-|------3-|
A|-----6-----|--------|--------|3-5-6---|
E|4----------|--------|--------|--------|
B|-----------|--------|--------|--------|

G|-----------|--------|--------|----------|
D|-------4h6-|5-------|3-3-5-5-|--5h6-5-7-|
A|-----6-----|--------|--------|-6--------|
E|4----------|--------|--------|4---------|
B|-----------|--------|--------|----------|



Chorus: - 1:08
G|---------------|----------------|---------------|-------------------|
D|---------------|----5--------3--|---------------|--------------10---|
A|5---5------5-4-|3-3---3----3---3|5----5------5--|3-3---3-3/8-8----8-|
E|---5-5-3-3-----|---------1------|----5-5-3-3--3-|----3--------------|
B|---------------|----------------|---------------|-------------------|

G|------------------|------------------|-----------------|--------------5---|
D|------------------|----5-4-3-3---3---|-----------------|----5-------5---5-|
A|5-5--5--------5-4-|3-3---------3---3/|5-5--5--------5--|3-3---3-3-3-------|
E|----5-5-3-3-3-----|------------------|----5-5-3-3-3--3-|------------------|
B|------------------|------------------|-----------------|------------------|


Post-Chorus: - 1:26
G|-----------------|-----------------|------------------|------------------|
D|-----------------|----3------------|------------------|----0-3-1-1---1-0-|
A|3---3--------3---|1-1---1------6-5-|3-3--3--------3---|1-3---------1--1--|
E|---3-3-1-1-1---1-|-----------6-----|----3-3-1-1-1---1-|------------------|
B|-----------------|---------4-------|------------------|------------------|

G|------------------|------------------|------------------|------------------|
D|------------------|----3-2-1-1---1---|------------------|----3---1-1-1-1---|
A|3-3--3--------3---|1-1---------1---1-|3-3--3--------3---|1-1---1---------1-|
E|----3-3-1-1-1---1-|------------------|----3-3-1-1-1---1-|------------------|
B|------------------|------------------|------------------|------------------|



Verse 2: - 1:45
G|-------------|---|---|------------|
D|-------------|---|---|----1---1-0-|
A|3\-----------|---|---|------1-----|
E|-------------|---|---|------------|
B|-------------|---|---|------------|
             ss
G|-------------|-------------3|-------------|------------|
D|-------------|----------1-3-|-------------|------------|
A|3\-----------|-------->1----|3\-----------|----6-------|
E|----5-x-5-5-5|4\------------|----5-x-5-5-5|4-6-----6---|
B|-------------|--------------|-------------|------------|



Pre-Chorus: - 2:04
G|-----------|--------|--------|--------|
D|-------4h6-|5-----5\|3-3-5-5-|------3-|
A|-----6-----|--------|--------|3-5-6---|
E|4----------|--------|--------|--------|
B|-----------|--------|--------|--------|

G|-----------|--------|--------|----------|
D|-------4h6-|5-----5\|3-3-5-5-|--5h6-5-5\|
A|-----6-----|--------|--------|-6--------|
E|4----------|--------|--------|4---------|
B|-----------|--------|--------|----------|


Interlude: - 2:23
Rest until 2:31
G|-----------------|--------------3---|-------------------|--------------|
D|----5------------|----3---1-1-1---1-|-------------------|----3---1-1-1-|
A|3-3---3-------3-2|1-1---1-----------|3-3---3---------3-2|1-1---1-------|
E|--------1-1-1----|------------------|----3---3-1-1-1----|--------------|
B|-----------------|------------------|-------------------|--------------|



Bridge: - 2:42
G|--------|----|----|----|
D|--------|----|----|----|
A|--------|----|----|----|
E|8\------|----|----|----|
B|--------|----|----|----|

G|----|----|----|----------|
D|----|----|----|----------|
A|----|----|----|----------|
E|----|----|----|----1/10\1|
B|----|----|----|----------|



Chorus: - 3:00
G|---------------|------------------|-----------------|----------------|
D|---------------|----5---3-3---3---|-----------------|----3--------3--|
A|5--5--------5-4|3-3--3------3---3/|5-5--5--------5--|3-3--3-----3---3|
E|--5-5-3-3-3----|------------------|----5-5-3-3-3---3|-------1-1------|
B|---------------|------------------|-----------------|----------------|

G|-----------------|------------------|-----------------|-----------------|
D|-----------------|----5---3-3---3---|-----------------|----5---3-----3--|
A|5-5--5-----------|3-3--3------3---3/|5-5--5--------5--|3-3--3----3-5---3|
E|----5-5-3-3-3----|------------------|----5-5-3-3-3---3|-----------------|
B|-----------------|------------------|-----------------|-----------------|

G|-----------------|--------------|-----------------|----------------|
D|--------------5--|-----------3--|-----------------|----5---3-------|
A|5-5--5----------5|3-3--3---3---3|5-5--5--------5-4|3-3--3----3-5-8\|
E|----5-5-3-3-3----|----3--1------|----5-5-3-3-3----|----------------|
B|-----------------|--------------|-----------------|----------------|

G|-----------------|-----------------|-----------------|---------------|
D|-----------------|----5-4-3-3---3--|-----------------|---------------|
A|5-5--5--------5--|3-3---------3---3|5-5--5--------5--|3-3------------|
E|----5-5-3-3-3---3|-----------------|----5-5-3-3-3---3|---------1/13\1|
B|-----------------|-----------------|-----------------|---------------|



Outro: - 3:38
G|-----------------|-------------------|-----------------|----------------|
D|-----------------|----5---3-3-3---3--|-----------------|----5-4-3-3-----|
A|5-5--5--------5--|3-3---3-------3---3|5-5--5--------5-4|3-3--------3---3|
E|----5-5-3-3-3---3|-------------------|----5-5-3-3-3----|-------------1--|
B|-----------------|-------------------|-----------------|----------------|

G|-----------------|---------------|-----------------|--------------|
D|-----------------|------------3--|-----------------|----5-4-3-3-3-|
A|5-5--5--------5--|3-3---3---3---3|5-5--5--------5-4|3-3-----------|
E|----5-5-3-3-3---3|----3---1------|----5-5-3-3-3----|--------------|
B|-----------------|---------------|-----------------|--------------|

G|--------|----|----|----|
D|--------|----|----|----|
A|--------|----|----|----|
E|10\-----|----|----|----|
B|--------|----|----|----|


☠☠☠☠☠☠☠☠☠☠☠☠☠☠☠☠☠☠☠☠☠☠☠☠☠☠☠☠☠☠☠☠☠☠☠☠

| x  Dead note
| (n) Ghost note
| h  Hammer-on
| >  Accented note
| /  Slide up
| \  Slide down
| s  Slap

☠☠☠☠☠☠☠☠☠☠☠☠☠☠☠☠☠☠☠☠☠☠☠☠☠☠☠☠☠☠☠☠☠☠☠☠

Almost there ...

Sign in to get your own page with links to favourite songs and more. You are just one click away...

Login with Facebook Login with Google