Log in

One click and you are in

Login with Facebook Login with Google

Why sign up and log in

Guitar Tabs Explorer
Miku Hatsune bass tabs for Alien alien

Bass tabs

  • Difficulty: Intermediate
Tuning: Standard (E A D G)


Intro:

G|---------------------------------------------------------------------------|
D|---9---9---7---7---5---5---4---4---9---9---7---7---5---5---8---8-----------|
A|---------------------------------------------------------------------------|
E|-7---7---5---5---3---3---2---2---7---7---5---5---3---3---6---6-------------|

G|-----------------------------------------------------------11-12-11--------|
D|---9---9---7---7---5---5---4---4---9---9---7---7---5--9-12----------12-----|
A|---------------------------------------------------------------------------|
E|-7---7---5---5---3---3---2---2---7---7---5---5---3-------------------------|

Verse 1:

G|-------------------------------------------------------------------------------|
D|-------------------------------------------------------------------------------|
A|--------------/9--10--10--10--10-10-/13---------------/9--10--10--10--10-10----|
E|-7--5--7--7-7----------------------------7--5--7--7-7-----------------------7--|

G|---------------------------------------------------------------------------|
D|------------------------------------------------------------9---8---7---6--|
A|--------------/9--10--10--10--10-10-/13---------------/9-------------------|
E|-7--5--7--7-7----------------------------7--5--7--7-7-----7---6---5---4----|

G|---------------------------------------------------------------------------|
D|---9---9---7---7---5---5---4---4---9---9---7---7---5---5---8---8-----------|
A|---------------------------------------------------------------------------|
E|-7---7---5---5---3---3---2---2---7---7---5---5---3---3---6---6-------------|

Verse 2:

G|-------------------------------------------------------------------------------|
D|-------------------------------------------------------------------------------|
A|--------------/9--10--10--10--10-10-/13---------------/9--10--10--10--10-10----|
E|-7--5--7--7-7----------------------------7--5--7--7-7-----------------------7--|

G|---------------------------------------------------------------------------|
D|------------------------------------------------------------9---8---7---6--|
A|--------------/9--10--10--10--10-10-/13---------------/9-------------------|
E|-7--5--7--7-7----------------------------7--5--7--7-7-----7---6---5---4----|

G|---------------------------------------------------------------------------|
D|---------------------------------------------------------------------------|
A|---------------------------------------------------------------------------|
E|-6--7--6--7--6--7--6--7--6-7-6-7-6-7-6-7-676767676-------------------------|


Chorus:

G|-------------------------------------------7---7---6---6---11---11---------|
D|---9---9---7---7---5---5---8---8---5---5-----------------------------------|
A|-----------------------------------------5---5---4---4---9----9------------|
E|-7---7---5---5---3---3---6---6---3---3-------------------------------------|

G|---------------------------------------------------------------------------|
D|---5---5---7---7---4---8---9---9---5---5---5---5---------------------------|
A|-------------------------------------------------1-1--4-4------------------|
E|-3---3---5---5---2---6---7---7---3---3---3---3-----------------------------|

G|-------------------------------------------7---7---6---6---11---11---------|
D|---9---9---7---7---5---5---8---8---5---5-----------------------------------|
A|-----------------------------------------5---5---4---4---9----9------------|
E|-7---7---5---5---3---3---6---6---3---3-------------------------------------|

G|---------------------------------------------------------------------------|
D|---5---5---7---7---4---8---9---9---5---5---5---5---8---8---8---8-----------|
A|---------------------------------------------------------------------------|
E|-3---3---5---5---2---6---7---7---3---3---3---3---6---6---6---6-------------|

G|---------------------------------------------------------------------------|
D|---9---9---7---7---5---5---4---4---9---9---7---7---5---5---8---8-----------|
A|---------------------------------------------------------------------------|
E|-7---7---5---5---3---3---2---2---7---7---5---5---3---3---6---6-------------|

G|-----------------------------------------------------------11-12-11--------|
D|---9---9---7---7---5---5---4---4---9---9---7---7---5--9-12----------12-----|
A|---------------------------------------------------------------------------|
E|-7---7---5---5---3---3---2---2---7---7---5---5---3-------------------------|



Verse 3:

G|-------------------------------------------------------------------------------|
D|-------------------------------------------------------------------------------|
A|--------------/9--10--10--10--10-10-/13---------------/9--10--10--10--10-10----|
E|-7--5--7--7-7----------------------------7--5--7--7-7-----------------------7--|

G|---------------------------------------------------------------------------|
D|------------------------------------------------------------9---8---7---6--|
A|--------------/9--10--10--10--10-10-/13---------------/9-------------------|
E|-7--5--7--7-7----------------------------7--5--7--7-7-----7---6---5---4----|

G|---------------------------------------------------------------------------|
D|--9--99---7--77---5--55---4--44---9--99---7--77---5--55---4--44------------|
A|---------------------------------------------------------------------------|
E|-7------5-------3-------2-------7-------5-------3-------2------------------|

G|---------------------------------------------------------------------------|
D|--9--99---7--77---5--55---4--44---9--99---7--77---5--55---8--88------------|
A|---------------------------------------------------------------------------|
E|-7------5-------3-------2-------7-------5-------3-------6------------------|

G|---------------------------------------------------------------------------|
D|--9--99---7--77---5--55---4--44---9--99---7--77---5--55---4--44------------|
A|---------------------------------------------------------------------------|
E|-7------5-------3-------2-------7-------5-------3-------2------------------|

G|---------------------------------------------------------------------------|
D|--9--99---7--77---9---8----7---6-------------------------------------------|
A|---------------------------------------------------------------------------|
E|-7------5-------7---6----5---4---------------------------------------------|

G|---------------------------------------------------------------------------|
D|---------------------------------------------------------------------------|
A|---------------------------------------------------------------------------|
E|-6--7--6--7--6--7--6--7--6-7-6-7-6-7-6-7-676767676-------------------------|


Chorus: don't play until 2:15

G|------------3-4------------------------------------------------------------|
D|-/5---7---4-------/5-------------------------------------------------------|
A|---------------------------------------------------------------------------|
E|---------------------------------------------------------------------------|

G|-------------------------------------------7---7---6---6---11---11---------|
D|---9---9---7---7---5---5---8---8---5---5-----------------------------------|
A|-----------------------------------------5---5---4---4---9----9------------|
E|-7---7---5---5---3---3---6---6---3---3-------------------------------------|

G|---------------------------------------------------------------------------|
D|---5---5---7---7---4---8---9---9---5---5---5---5---------------------------|
A|-------------------------------------------------1-1--5-5------------------|
E|-3---3---5---5---2---6---7---7---3---3---3---3-----------------------------|

G|---------------------------------------------8---8---7---7----12----12-----|
D|---10---10---8---8---6---6---9---9---6---6---------------------------------|
A|-------------------------------------------6---6---5---5---10----10--------|
E|-8----8----6---6---4---4---7---7---4---4-----------------------------------|

G|---------------------------------------------------------------------------|
D|---6---6---8---8---5---9---10---10---6---6---6---6---9---9---9---9---------|
A|---------------------------------------------------------------------------|
E|-4---4---6---6---3---7---8----8----4---4---4---4---7---7---7---7-----------|




Outro:

G|---------------------------------------------------------------------------|
D|---10---10---8---8---6---6---5---5---10---10---8---8---6---6---9--9--------|
A|---------------------------------------------------------------------------|
E|-8----8----6---6---4---4---3---3---8----8----6---6---4---4---7-------------|

G|---------------------------------------------------------------------------|
D|---10---10---8---8---6---6---5---5---10---10---8---8---6---6---9--9--------|
A|---------------------------------------------------------------------------|
E|-8----8----6---6---4---4---3---3---8----8----6---6---4---4---7-------------|


************************************

| / Slide up

************************************

Almost there ...

Sign in to get your own page with links to favourite songs and more. You are just one click away...

Login with Facebook Login with Google