Log in

One click and you are in

Login with Facebook Login with Google

Why sign up and log in

Guitar Tabs Explorer
Hater tabs for Tot finder

Guitar tabs with lyrics

"Tot Finder" by Hater
                            from the CD "Hater"
                       transcribed by Wesley Torres
                            jiffypop@ibcco.com

Intro/Verse:

  1        2       3        4          1        2       3        4
|------------------------------------|------------------------------------|
|------------------------------------|------------------------------------|
|-2--------2-------5--------7--------|-7--------7-------7--------7--------|
|-2--------2-------5--------7--------|-7--------7-------7--------7--------|
|-0--------0-------3--------5--------|-5--------5-------5--------5--------|
|------------------------------------|------------------------------------|

  1        2       3        4          1        2       3        4
|------------------------------------|------------------------------------|
|------------------------------------|------------------------------------|
|-7--------7-------5--------2--------|-2--------2-------2--------2--------|
|-7--------7-------5--------2--------|-2--------2-------2--------2--------|
|-5--------5-------3--------0--------|-0--------0-------0--------0--------|
|------------------------------------|------------------------------------|

6 times


Chorus: I'm not too sure about this part but it's pretty close.  If anybody
knows how it really goes could you send it to me?

  1        2       3        4          1        2       3        4
|------------------------------------|------------------------------------|
|------------------------------------|------------------------------------|
|------------------------------------|------------------------------------|
|-7--------7-------7--------7--------|-7--------7-------7--------7--------|
|-7--------7-------7--------7--------|-7--------7-------7--------7--------|
|-5--------5-------5--------5--------|-5--------5-------5--------5--------|

  1        2       3        4          1        2       3        4
|------------------------------------|------------------------------------|
|------------------------------------|------------------------------------|
|------------------------------------|------------------------------------|
|-7--------5-------5--------5--------|----------5-------5--------5--------|
|-7--------5-------5--------5--------|----------5-------5--------5--------|
|-5--------3-------3--------3--------|----------3-------3--------3--------|

  1        2       3        4          1        2       3        4
|------------------------------------|------------------------------------|
|------------------------------------|------------------------------------|
|------------------------------------|------------------------------------|
|-5--------3-------3--------3--------|-3--------3-------3--------3--------|
|-5--------3-------3--------3--------|-3--------3-------3--------3--------|
|-3--------1-------1--------1--------|-1--------1-------1--------1--------|

  1        2       3        4          1        2       3        4
|------------------------------------|------------------------------------|
|------------------------------------|------------------------------------|
|------------------------------------|------------------------------------|
|-3--------3-------3--------7--------|-(7)--------------------------------|
|-3--------3-------3--------7--------|-(7)--------------------------------|
|-1--------1-------1--------5--------|-(5)--------------------------------|
Play this part twice for each chorus.

Then play the whole thing over again.
Then do the Intro/Verse 6 times


Bridge: (slightly faster)

  1       2       3         4       1       2       3       4
|---------------------------------|---------------------------------|
|---------------------------------|---------------------------------|
|---------------------------------|---------------------------------| 3
|---------------------------------|---------------------------------| times
|-0-0-0-0-3-0-0-0-5-0-0-0-0---0-0-|-0-0-0-0-3-0-0-0-5-0-0-0-0---0-0-|
|---------------------------3-----|---------------------------3-----|

Then the Intro/Verse 4 times and then the chorus again.

Then the Intro/Verse 8 times and end on the A.

        \|||/
       ( o o )   Wesley Torres - jiffypop@mail.ibcco.com
+-.oooO--(_)--Oooo.---------------------------------------+
                  "Duct tape is a lot like the force.  It
   .oooO          has a light side and a dark side and it
   (   )   Oooo.    holds the universe together."
+---\ (----(   )------------------------------------------+
     \_)    ) /   http://home.ptd.net/~malelist/jiffypop
           (_/     for fan club and mailing list info

Almost there ...

Sign in to get your own page with links to favourite songs and more. You are just one click away...

Login with Facebook Login with Google