Log in

One click and you are in

Login with Facebook Login with Google

Why sign up and log in

Guitar Tabs Explorer
Hater tabs for Putrid

Guitar tabs with lyrics

HATER
Putrid
Words: Brian Wood
Music: Ben Shepherd
Figured out by: Me, (stupiddities@hotmail.com)
Intro: 2X
  1 + 2 + 3 + 4 +   1 + 2 + 3 +  4 +
e-----------------|--------------0---|
b-----------------|------------0---0-|
g-----------------|-----------0------|
d-5-5-5-5-5-5-5-5-|-7-7-7-2----------|
a-5-5-5-5-5-5-5-5-|-7-7-7-2----------|
e-3-3-3-3-3-3-3-3-|-5-5-5-0----------|


Verse part 1: (Sometimes play intro for verse)

Star lover, star lover
Star lover, star lover
Star lover, star lover
Star lover

  1 + 2 + 3 + 4 +   1 + 2 + 3 + 4 +
e-----------------|-----------------|
b-----------------|-----------------|
g-----------------|-----------------|
d-5-5-5-5-5-5-5-5-|-7-7-7-2---2-2-2-|
a-5-5-5-5-5-5-5-5-|-7-7-7-2---2-2-2-|
e-3-3-3-3-3-3-3-3-|-5-5-5-0---0-0-0-|


Verse Part 2:

Putting on a striptease
Waiting for the floor

  1 + 2 + 3 + 4 +   1 + 2 + 3 + 4 +
e-----------------|-----------------|
b-----------------|-----------------|
g-----------------|-----------------|
d-7-7-7-7-7-7-7-7-|-9-9-9-9-9-9-9-9-|
a-7-7-7-7-7-7-7-7-|-9-9-9-9-9-9-9-9-|
e-5-5-5-5-5-5-5-5-|-7-7-7-7-7-7-7-7-|

   1  +  2  +  3  +  4  +    1  +  2  + 3   +    4    +
e-------------------------|-------------------------------|
b-------------------------|-------------------------------|
g-------------------------|-------------------------------|
d-------------------------|-------------------------------|
a-10-10-10-10-10-10-10-10-|-10-10-10-10-------------------|
e--8--8--8--8--8--8--8--8-|--8--8--8--8-7--6--5--6--5--4--|

There may be more chords at the end before playing the single note
triplets. I can't remember.
The part before the solo is a little different. Instead of the last bar
in the second verse part, play this:


   1  +  2  + 3    +   4    +   5    +   6    +
e-------------------------------------------------|
b-------------------------------------------------|
g-------------------------------------------------|
d-------------------------------------------------|
a-10-10-10-10-------------------------------------|
e--8--8--8--8-7--6--5--6--5--4--5--4--3--4--3--2--|


Outro: ("I know it's a lie" part)

  1 + 2 + 3 + 4 +   1 + 2 + 3 + 4 +
e-----------------|-----------------|
b-----------------|-----------------|
g-----------------|-----------------|
d-5-5-5-5-5-5-5-5-|-7-7-7-2---------|
a-5-5-5-5-5-5-5-5-|-7-7-7-2---------|
e-3-3-3-3-3-3-3-3-|-5-5-5-0---------|

  1 + 2 + 3 + 4 +   1 + 2 + 3 + 4 +    1 + 2 + 3 + 4 +
e-----------------|-----------------|------------------|
b-----------------|-------------0---|-(0)--------------|
g-----------------|-----------0-----|------------------|
d-5-5-5-5-5-5-5-5-|-7-7-7-2---------|------------------|
a-5-5-5-5-5-5-5-5-|-7-7-7-2---------|------------------|
e-3-3-3-3-3-3-3-3-|-5-5-5-0---------|------------------|


2nd Verse:
Star lover, star lover
Star lover, star lover
Is she it, hasn't grown up yet
Is she it, my toeless pet
Scribble on a striptease
Waiting for the floor

3rd Verse:
Star lover, star lover
Star lover, star lover
Is she it, hasn't grown up kind
Is she it, made me lose my mind
Never on a tip please
Waiting for the floor

4th Verse:
Star lover, star lover
Star lover, star lover
Is she it, hasn't grown up yet
You'll be ate by the tongueless pet
Scribble on a striptease
Waiting for the floor

5th Verse:
Star lover, star lover
Star lover, star lover
Touch me in the backroom
Share me on the floor
Scribble on a striptease
Waiting for the floor


Outro:
I know it's a lie
I know it's a lie

______________________________________________________
Get Your Private, Free Email at http://www.hotmail.com

Almost there ...

Sign in to get your own page with links to favourite songs and more. You are just one click away...

Login with Facebook Login with Google