Log in

One click and you are in

Login with Facebook Login with Google

Why sign up and log in

Guitar Tabs Explorer
Hater tabs for Circles

Guitar tabs with lyrics

"Circles" by Hater
                              from the CD "Hater"
                          transcribed by Wesley Torres
                             jiffypop@ibcco.com

This is a really fast punk type song with crunchy gritty distortion.
Intro:

  1        2       3        4          1        2       3        4
|------------------------------------|------------------------------------|
|------------------------------------|------------------------------------|
|------------------------------------|------------------------------------|
|-5--------5---5---5--------5---5----|-5---5----5-------10-------8--------|
|-5--------5---5---5--------5---5----|-5---5----5-------10-------8--------|
|-3--------3---3---3--------3---3----|-3---3----3-------8--------6--------|

2 times


Verse:

  1        2       3        4          1        2       3        4
|------------------------------------|------------------------------------|
|------------------------------------|------------------------------------|
|------------------------------------|------------------------------------|
|-5--------5---5---5--------5---5----|-5---5----5-------10-------8--------|
|-5--------5---5---5--------5---5----|-5---5----5-------10-------8--------|
|-3--------3---3---3--------3---3----|-3---3----3-------8--------6--------|

4 times

  1        2       3        4          1        2       3        4
|------------------------------------|------------------------------------|
|------------------------------------|------------------------------------|
|------------------------------------|------------------------------------|
|-10-------10--10--10-------10---10--|-10--10---10--10--10-------8--------|
|-10-------10--10--10-------10---10--|-10--10---10--10--10-------8--------|
|-8--------8---8---8--------8----8---|-8---8----8---8---8--------6--------|

  1        2       3        4          1        2       3        4
|------------------------------------|------------------------------------|
|------------------------------------|------------------------------------|
|------------------------------------|------------------------------------|
|-5--------5---5---5--------5---5----|-5---5----5-------10-------8--------|
|-5--------5---5---5--------5---5----|-5---5----5-------10-------8--------|
|-3--------3---3---3--------3---3----|-3---3----3-------8--------6--------|

  1        2       3        4          1        2       3        4
|------------------------------------|------------------------------------|
|------------------------------------|------------------------------------|
|------------------------------------|------------------------------------|
|-5--------5---5---5--------5---5----|-5---5----5-------10-------8--------|
|-5--------5---5---5--------5---5----|-5---5----5-------10-------8--------|
|-3--------3---3---3--------3---3----|-3---3----3-------8--------6--------|

2 times

Then start over at the verse part........

Then start over at the verse part again.......

Bridge: (this is one measure of 5/4 followed by two 4/4 measures)

  1        2       3        4       5
|----------------------------------------|
|----------------------------------------|
|-3----X-----X-----3---------5-------5---|
|-3----X-----X-----3---------5-------5---|
|-1----X-----X-----1---------3-------3---|
|----------------------------------------|

  1        2       3        4          1        2       3        4
|------------------------------------|------------------------------------|
|------------------------------------|------------------------------------|
|-3----X-----X-----3--------5--------|-------------[drum]-----------------|
|-3----X-----X-----3--------3--------|-------------[fill]-----------------|
|-1----X-----X-----1--------3--------|------------------------------------|
|------------------------------------|------------------------------------|


Solo:
Just play something cool over the Intro/Verse


Then start at the beginning again one last time, except at the very end,
keep repeating the A chord diagramC majorC chord at the 8th fret instead of the main riff again.


        \|||/
       ( o o )   Wesley Torres - jiffypop@mail.ibcco.com
+-.oooO--(_)--Oooo.---------------------------------------+
                  "Duct tape is a lot like the force.  It
   .oooO          has a light side and a dark side and it
   (   )   Oooo.    holds the universe together."
+---\ (----(   )------------------------------------------+
     \_)    ) /   http://home.ptd.net/~malelist/jiffypop
           (_/     for fan club and mailing list info

Almost there ...

Sign in to get your own page with links to favourite songs and more. You are just one click away...

Login with Facebook Login with Google