Log in

One click and you are in

Login with Facebook Login with Google

Why sign up and log in

Guitar Tabs Explorer
Hatebreed tabs for Live for this

Guitar tabs with lyrics

Hatebreed: Live For This [The rise of brutality]

Tuning: CGCFAD
Heavy Dist.
tone is just a little bit scooped
x means palm mute..... and your a dumb ass if
ya can't figure that one out.
-----------------------------||------------------
-----------------------------||------------------
-----------------------------||------------------
-7-5-8-------7-------7-------||-5555555588888888-
-5-3/6-0-0-0-5-0-0-0-5-0-0-0-||-3333333366666666-
-------0-0-0-0-0-0-0-0-0-0-0-||------------------
       x x x   x x x   x x x
-------------------------------------------------
-------------------------------------------------
-------------------------------------------------
-------------------------------------------------
-0--037--376--003p003p005------------------------
-0--037--376--003p003p005------------------------
    xx   xx   xx   x   x
-------------------------------------------------
-------------------------------------------------
-------------------------------------------------
--------------------------5555555588888888-------
-0----------0----------0--3333333366666666-------
-0----------0----------0-------------------------
Lyrics:
Let's go!
Live for this, Live, Live
Live for this
Live for this, Live, Live
If you don't live for something, You'll die for nothing.
Through the best and the worst
The struggle and sacrifice.
For the true who've remained and the new blood.
Motivation, undying allegiance
Striving through the hardships and affliction.
Every drop of blood
Every bitter tear
Every bead of sweat
I live for this
Live for this, Live, Live
Live for this
Live for this, Live, Live
If you don't live for something you'll die for nothing.
What we have are not possessions we own
It's not weighed by greed or personal gain
This is real a desire for freedom.
A chord diagramA augmentedA place apart from a world in abandon.
Every drop of blood
Every bitter tear
Every bead of sweat
I live for this
Live for this, Live, Live
If you don't live for something you'll die for nothing.
I live for this.
Every drop of blood
Every bitter tear
Every bead of sweat
I live for this

Almost there ...

Sign in to get your own page with links to favourite songs and more. You are just one click away...

Login with Facebook Login with Google