Yuri G by PJ Harvey

Yuri G tab by PJ Harvey

Guitar tabs

Here is the corrected version of yuri-g that i sent in about a week ago.

Yuri-G by P.J. Harvey
4-track Demos
transcribed by Joe Lupo

Capo at second fret
(I'll type out the tablature as if there is no capo, but it is
easier to play it with one.)

Verse:
E|------------------------------------------------------------|
B|------------------------------------------------------------|
G|------------------------------------------------------------|
D|-7-7-7-6-6-6-6--5-5-5-4-4-4-4-------------------------------|
A|-4-4-4-4-4-4-4--2-2-2-2-2-2-2--4-4-4-7-4-4-7--4-4-4-7-4-4-7-|
E|-------------------------------2-2-2-2-2-2-2--2-2-2-2-2-2-2-|

Prechorus:
   (repeat this 3 times)
E|------------------------------|------------------------------|
B|------------------------------|------------------------------|
G|------------------------------|------------------------------|
D|-7-7-7-6-6-6-6--5-5-5-4-4-4-4-|------------------------------|
A|-4-4-4-4-4-4-4--2-2-2-2-2-2-2-|-7-4-4-7-4-4-4--7-7-7-7-4-4-4-|
E|------------------------------|-2-2-2-2-2-2-2--5-5-5-5-2-2-2-|

Chorus:
E|------------------------------|-----------------------------|
B|------------------------------|-----------------------------|
G|------------------------------|-----------------------------|
D|-7-7-7-7-7-7-x--4-4-4-x-------|-----------------------------|
A|-5-5-5-5-5-5-x--2-2-2-x-4-4-4-|-7-7-7-7-7-7-x-4-4-4-4-4-4-4-|
E|------------------------2-2-2-|-5-5-5-5-5-5-x-2-2-2-2-2-2-2-|

(there are some lines in the song that i'm not sure of, if
someone else knows them or can figure them out please send me the
corrections)

Lyrics:

(verse music)
Hey ..
I'd ..
how ..
so ..

Needing				..
my ..
been ..
been ..

(prechorus music)
She's ..
I'm ..
I'd ..
give ..

(chorus music)
Yeah, ..
it's ..
Yeah ..
yeah ..

(verse)
Don't ..
???				???
needles	..
and ..

(prechorus)
I ..
I ..
I'd ..
I'd...

(chorus)
Yeah..
it's ..
Yeah ..
yeah ..

(verse music four times)

(chorus)
Yeah ...
it's ..
Yeah ..
oh ..
Yeah ..
I ..
Yeah ..
oh ..

(for the rest of the song, just play the second half of the chorus)

no ..
no ..
no ..

please send any corrections or comments to jlupo@eden.rutgers.edu

Find guitar tabs and chords

A B C D E F G H I J K L M N O P Q R S T U V W X Y Z #