To Bring You My Love by PJ Harvey

To Bring You My Love chords by PJ Harvey

Guitar chords with lyrics

----------------------------------
 To Bring You My Love - PJ Harvey
----------------------------------
transcribed by Greg O'Beirne (gobeirne@tartarus.uwa.edu.au)


  1  +  2  +  3  +  4  +  1  +  2  +  3  +  4  +
E------------------------------------------------------------------
B------------------------------------------------------------------
G------------------------------------------------------------------
D------------------------------------------------------------------
A--5---------------------------3---5---------------------------3---
E--------------3-\-1---1---3/5-----------------3-\-1---1---3/5-----


I ...
I ..
Jesus ..
I ..

And ..
Dry ..
Hell ..
To ..

[Strum: C  D]

Climbed ..
Travelled ..
Cast ..
Cast ..

[Strum: C  D]

I've ..
Cursed ..
Forsaken ..

To ..[ C  D ]
To ..[ C  D ]
To ..[ C  D ]
To .....[ C  D ]  oooh...

D C G G  x 2

          D    C    G    G
You ..
          D    C    G    G
You ..
   C D
Yeah ..

2nd Riff:
  1  +  2  +  3  +  4  +  1  +  2  +  3  +  4  +
E------------------------------------------------------------------
B------------------------------------------------------------------
G------------------------------------------------------------------
D------------------------------------------------------------------
A--5---------------------------3---5---------------------------3---
E--------------3-\-1---1---0-------------------3-\-1---1---0-------


Forsaken ..
Cursed ..
Lain ..
Bring ..[ C  D ]

To ..[ C  D ]
To ..[ C  D ]
To ..[ C  D ]
            [ C  D ]


    Guitar: 2nd Riff, fade out, then just sustain a D
Organ & E-Bow: D  C  A#  A  F


Any Comments/Corrections/Suggestions welcome,
--
Greg O'Beirne
woyf@perth.dialix.oz.au
goberine@tartarus.uwa.edu.au
http://www.uwa.edu.au/student/gobeirne/

Other versions of To Bring You My Love

Alternative guitar chords and tabs for To Bring You My Love by PJ Harvey

Find guitar tabs and chords

A B C D E F G H I J K L M N O P Q R S T U V W X Y Z #