This Mess Were In by PJ Harvey

This Mess Were In tab by PJ Harvey

Guitar tabs

Intro:
  A5    Am/C       A5    Am/C       A5    Am/C       A5    Am/C
e|--------------------------|--------------------------|--------------------------|--------------------------|
B|--------------------------|--------------------------|--------------------------|--------------------------|
G|--2--2--2--2-----2--2--2--|--2--2--2--2-----2--2--2--|--2--2--2--2-----2--2--2--|--2--2--2--2-----2--2--2--|
D|--2--2--2--2-----2--2--2--|--2--2--2--2-----2--2--2--|--2--2--2--2-----2--2--2--|--2--2--2--2-----2--2--2--|
A|--0--0--0--3-----3--3--3--|--0--0--0--3-----3--3--3--|--0--0--0--3-----3--3--3--|--0--0--0--3-----3--3--3--|
E|--------------------------|--------------------------|--------------------------|--------------------------|

   G5/D   Csus2       G5/D   Csus2
e|--------------------------|--------------------------|
B|--------------------------|--------------------------|
G|----0--------0------------|----0--------0------------|
D|----0--0--0--0---0--0--0--|----0--0--0--0---0--0--0--|
A|--3s5--5--5--3---3--3--3--|--3s5--5--5--3---3--3--3--|
E|--------------------------|--------------------------|

  A5    Am/C       A5    Am/C        G5/D           Csus2
e|--------------------------|--------------------------|--------------------------|--------------------------|
B|--------------------------|--------------------------|--------------------------|--------------------------|
G|--2--2--2--2-----2--2--2--|--2--2--2--2-----2--2--2--|---0--0--0--0--0--0--0--0-|--0--0--0--0--0--0--0--0--|
D|--2--2--2--2-----2--2--2--|--2--2--2--2-----2--2--2--|---0--0--0--0--0--0--0--0-|--0--0--0--0--0--0--0--0--|
A|--0--0--0--3-----3--3--3--|--0--0--0--3-----3--3--3--|-3s5--5--5--5--5--5--5--5-|--3--3--3--3--3--3--3--3--|
E|--------------------------|--------------------------|--------------------------|--------------------------|

  A5    Am/C       A5    Am/C        G5/D           Csus2
e|--------------------------|--------------------------|--------------------------|--------------------------|
B|--------------------------|--------------------------|--------------------------|--------------------------|
G|--2--2--2--2-----2--2--2--|--2--2--2--2-----2--2--2--|---0--0--0--0--0--0--0--0-|--0--0--0--0--0--0--0--0--|
D|--2--2--2--2-----2--2--2--|--2--2--2--2-----2--2--2--|---0--0--0--0--0--0--0--0-|--0--0--0--0--0--0--0--0--|
A|--0--0--0--3-----3--3--3--|--0--0--0--3-----3--3--3--|-3s5--5--5--5--5--5--5--5-|--3--3--3--3--3--3--3--3--|
E|--------------------------|--------------------------|--------------------------|--------------------------|

  A5    Am/C       A5    Am/C
e|--------------------------|--------------------------|
B|--------------------------|--------------------------|
G|--2--2--2--2-----2--2--2--|--2--2--2--2-----2--2--2--|
D|--2--2--2--2-----2--2--2--|--2--2--2--2-----2--2--2--|
A|--0--0--0--3-----3--3--3--|--0--0--0--3-----3--3--3--|
E|--------------------------|--------------------------|

Verse 1:
  A5    Am/C       A5    Am/C       A5    Am/C       A5    Am/C
e|--------------------------|--------------------------|--------------------------|--------------------------|
B|--------------------------|--------------------------|--------------------------|--------------------------|
G|--2--2--2--2-----2--2--2--|--2--2--2--2-----2--2--2--|--2--2--2--2-----2--2--2--|--2--2--2--2-----2--2--2--|
D|--2--2--2--2-----2--2--2--|--2--2--2--2-----2--2--2--|--2--2--2--2-----2--2--2--|--2--2--2--2-----2--2--2--|
A|--0--0--0--3-----3--3--3--|--0--0--0--3-----3--3--3--|--0--0--0--3-----3--3--3--|--0--0--0--3-----3--3--3--|
E|--------------------------|--------------------------|--------------------------|--------------------------|

   G5/D   Csus2       G5/D   Csus2
e|--------------------------|--------------------------|
B|--------------------------|--------------------------|
G|----0--------0------------|----0--------0------------|
D|----0--0--0--0---0--0--0--|----0--0--0--0---0--0--0--|
A|--3s5--5--5--3---3--3--3--|--3s5--5--5--3---3--3--3--|
E|--------------------------|--------------------------|

  A5    Am/C       A5    Am/C       A5    Am/C       A5    Am/C
e|--------------------------|--------------------------|--------------------------|--------------------------|
B|--------------------------|--------------------------|--------------------------|--------------------------|
G|--2--2--2--2-----2--2--2--|--2--2--2--2-----2--2--2--|--2--2--2--2-----2--2--2--|--2--2--2--2-----2--2--2--|
D|--2--2--2--2-----2--2--2--|--2--2--2--2-----2--2--2--|--2--2--2--2-----2--2--2--|--2--2--2--2-----2--2--2--|
A|--0--0--0--3-----3--3--3--|--0--0--0--3-----3--3--3--|--0--0--0--3-----3--3--3--|--0--0--0--3-----3--3--3--|
E|--------------------------|--------------------------|--------------------------|--------------------------|

  A5    Am/C       A5    Am/C        G5/D   Csus2       G5/D   Csus2
e|--------------------------|--------------------------|--------------------------|--------------------------|
B|--------------------------|--------------------------|--------------------------|--------------------------|
G|--2--2--2--2-----2--2--2--|--2--2--2--2-----2--2--2--|----0--------0------------|----0--------0------------|
D|--2--2--2--2-----2--2--2--|--2--2--2--2-----2--2--2--|----0--0--0--0---0--0--0--|----0--0--0--0---0--0--0--|
A|--0--0--0--3-----3--3--3--|--0--0--0--3-----3--3--3--|--3s5--5--5--3---3--3--3--|--3s5--5--5--3---3--3--3--|
E|--------------------------|--------------------------|--------------------------|--------------------------|

  A5    Am/C       A5    Am/C
e|--------------------------|--------------------------|
B|--------------------------|--------------------------|
G|--2--2--2--2-----2--2--2--|--2--2--2--2-----2--2--2--|
D|--2--2--2--2-----2--2--2--|--2--2--2--2-----2--2--2--|
A|--0--0--0--3-----3--3--3--|--0--0--0--3-----3--3--3--|
E|--------------------------|--------------------------|

Chorus 1:
  F(no5)           G5/D            A5    Am/C       A5    Am/C
e|--------------------------|--------------------------|--------------------------|--------------------------|
B|--------------------------|--------------------------|--------------------------|--------------------------|
G|--------------------------|--------------------------|--2--2--2--2-----2--2--2--|--2--2--2--2-----2--2--2--|
D|--7--7--7--7--7--7--7--7--|--5--5--5--5--5--5--5--5--|--2--2--2--2-----2--2--2--|--2--2--2--2-----2--2--2--|
A|--8--8--8--8--8--8--8--8--|--5--5--5--5--5--5--5--5--|--0--0--0--3-----3--3--3--|--0--0--0--3-----3--3--3--|
E|--------------------------|--------------------------|--------------------------|--------------------------|

  F(no5)           G5/D            A5    Am/C       A5    Am/C
e|--------------------------|--------------------------|--------------------------|--------------------------|
B|--------------------------|--------------------------|--------------------------|--------------------------|
G|--------------------------|--------------------------|--2--2--2--2-----2--2--2--|--2--2--2--2-----2--2--2--|
D|--7--7--7--7--7--7--7--7--|--5--5--5--5--5--5--5--5--|--2--2--2--2-----2--2--2--|--2--2--2--2-----2--2--2--|
A|--8--8--8--8--8--8--8--8--|--5--5--5--5--5--5--5--5--|--0--0--0--3-----3--3--3--|--0--0--0--3-----3--3--3--|
E|--------------------------|--------------------------|--------------------------|--------------------------|

Verse 2:
  A5    Am/C       A5    Am/C       A5    Am/C       A5    Am/C
e|--------------------------|--------------------------|--------------------------|--------------------------|
B|--------------------------|--------------------------|--------------------------|--------------------------|
G|--2--2--2--2-----2--2--2--|--2--2--2--2-----2--2--2--|--2--2--2--2-----2--2--2--|--2--2--2--2-----2--2--2--|
D|--2--2--2--2-----2--2--2--|--2--2--2--2-----2--2--2--|--2--2--2--2-----2--2--2--|--2--2--2--2-----2--2--2--|
A|--0--0--0--3-----3--3--3--|--0--0--0--3-----3--3--3--|--0--0--0--3-----3--3--3--|--0--0--0--3-----3--3--3--|
E|--------------------------|--------------------------|--------------------------|--------------------------|

   G5/D   Csus2       G5/D   Csus2
e|--------------------------|--------------------------|
B|--------------------------|--------------------------|
G|----0--------0------------|----0--------0------------|
D|----0--0--0--0---0--0--0--|----0--0--0--0---0--0--0--|
A|--3s5--5--5--3---3--3--3--|--3s5--5--5--3---3--3--3--|
E|--------------------------|--------------------------|

  A5    Am/C       A5    Am/C       A5    Am/C       A5    Am/C
e|--------------------------|--------------------------|--------------------------|--------------------------|
B|--------------------------|--------------------------|--------------------------|--------------------------|
G|--2--2--2--2-----2--2--2--|--2--2--2--2-----2--2--2--|--2--2--2--2-----2--2--2--|--2--2--2--2-----2--2--2--|
D|--2--2--2--2-----2--2--2--|--2--2--2--2-----2--2--2--|--2--2--2--2-----2--2--2--|--2--2--2--2-----2--2--2--|
A|--0--0--0--3-----3--3--3--|--0--0--0--3-----3--3--3--|--0--0--0--3-----3--3--3--|--0--0--0--3-----3--3--3--|
E|--------------------------|--------------------------|--------------------------|--------------------------|

  A5    Am/C       A5    Am/C        G5/D   Csus2       G5/D   Csus2
e|--------------------------|--------------------------|--------------------------|--------------------------|
B|--------------------------|--------------------------|--------------------------|--------------------------|
G|--2--2--2--2-----2--2--2--|--2--2--2--2-----2--2--2--|----0--------0------------|----0--------0------------|
D|--2--2--2--2-----2--2--2--|--2--2--2--2-----2--2--2--|----0--0--0--0---0--0--0--|----0--0--0--0---0--0--0--|
A|--0--0--0--3-----3--3--3--|--0--0--0--3-----3--3--3--|--3s5--5--5--3---3--3--3--|--3s5--5--5--3---3--3--3--|
E|--------------------------|--------------------------|--------------------------|--------------------------|

  A5    Am/C       A5    Am/C
e|--------------------------|--------------------------|
B|--------------------------|--------------------------|
G|--2--2--2--2-----2--2--2--|--2--2--2--2-----2--2--2--|
D|--2--2--2--2-----2--2--2--|--2--2--2--2-----2--2--2--|
A|--0--0--0--3-----3--3--3--|--0--0--0--3-----3--3--3--|
E|--------------------------|--------------------------|

Chorus 2:
  F(no5)           G5/D            A5    Am/C       A5    Am/C
e|--------------------------|--------------------------|--------------------------|--------------------------|
B|--------------------------|--------------------------|--------------------------|--------------------------|
G|--------------------------|--------------------------|--2--2--2--2-----2--2--2--|--2--2--2--2-----2--2--2--|
D|--7--7--7--7--7--7--7--7--|--5--5--5--5--5--5--5--5--|--2--2--2--2-----2--2--2--|--2--2--2--2-----2--2--2--|
A|--8--8--8--8--8--8--8--8--|--5--5--5--5--5--5--5--5--|--0--0--0--3-----3--3--3--|--0--0--0--3-----3--3--3--|
E|--------------------------|--------------------------|--------------------------|--------------------------|

  F(no5)           G5/D            A5    Am/C       A5    Am/C
e|--------------------------|--------------------------|--------------------------|--------------------------|
B|--------------------------|--------------------------|--------------------------|--------------------------|
G|--------------------------|--------------------------|--2--2--2--2-----2--2--2--|--2--2--2--2-----2--2--2--|
D|--7--7--7--7--7--7--7--7--|--5--5--5--5--5--5--5--5--|--2--2--2--2-----2--2--2--|--2--2--2--2-----2--2--2--|
A|--8--8--8--8--8--8--8--8--|--5--5--5--5--5--5--5--5--|--0--0--0--3-----3--3--3--|--0--0--0--3-----3--3--3--|
E|--------------------------|--------------------------|--------------------------|--------------------------|


Instrumental:
  A5    Am/C       A5    Am/C       A5    Am/C       A5    Am/C
e|--------------------------|--------------------------|--------------------------|--------------------------|
B|--------------------------|--------------------------|--------------------------|--------------------------|
G|--2--2--2--2-----2--2--2--|--2--2--2--2-----2--2--2--|--2--2--2--2-----2--2--2--|--2--2--2--2-----2--2--2--|
D|--2--2--2--2-----2--2--2--|--2--2--2--2-----2--2--2--|--2--2--2--2-----2--2--2--|--2--2--2--2-----2--2--2--|
A|--0--0--0--3-----3--3--3--|--0--0--0--3-----3--3--3--|--0--0--0--3-----3--3--3--|--0--0--0--3-----3--3--3--|
E|--------------------------|--------------------------|--------------------------|--------------------------|

   G5/D   Csus2       G5/D   Csus2
e|--------------------------|--------------------------|
B|--------------------------|--------------------------|
G|----0--------0------------|----0--------0------------|
D|----0--0--0--0---0--0--0--|----0--0--0--0---0--0--0--|
A|--3s5--5--5--3---3--3--3--|--3s5--5--5--3---3--3--3--|
E|--------------------------|--------------------------|

  A5    Am/C       A5    Am/C       A5    Am/C       A5    Am/C
e|--------------------------|--------------------------|--------------------------|--------------------------|
B|--------------------------|--------------------------|--------------------------|--------------------------|
G|--2--2--2--2-----2--2--2--|--2--2--2--2-----2--2--2--|--2--2--2--2-----2--2--2--|--2--2--2--2-----2--2--2--|
D|--2--2--2--2-----2--2--2--|--2--2--2--2-----2--2--2--|--2--2--2--2-----2--2--2--|--2--2--2--2-----2--2--2--|
A|--0--0--0--3-----3--3--3--|--0--0--0--3-----3--3--3--|--0--0--0--3-----3--3--3--|--0--0--0--3-----3--3--3--|
E|--------------------------|--------------------------|--------------------------|--------------------------|

  A5    Am/C       A5    Am/C        G5/D   Csus2       G5/D   Csus2
e|--------------------------|--------------------------|--------------------------|--------------------------|
B|--------------------------|--------------------------|--------------------------|--------------------------|
G|--2--2--2--2-----2--2--2--|--2--2--2--2-----2--2--2--|----0--------0------------|----0--------0------------|
D|--2--2--2--2-----2--2--2--|--2--2--2--2-----2--2--2--|----0--0--0--0---0--0--0--|----0--0--0--0---0--0--0--|
A|--0--0--0--3-----3--3--3--|--0--0--0--3-----3--3--3--|--3s5--5--5--3---3--3--3--|--3s5--5--5--3---3--3--3--|
E|--------------------------|--------------------------|--------------------------|--------------------------|

  A5    Am/C       A5    Am/C
e|--------------------------|--------------------------|
B|--------------------------|--------------------------|
G|--2--2--2--2-----2--2--2--|--2--2--2--2-----2--2--2--|
D|--2--2--2--2-----2--2--2--|--2--2--2--2-----2--2--2--|
A|--0--0--0--3-----3--3--3--|--0--0--0--3-----3--3--3--|
E|--------------------------|--------------------------|

Chorus 3:
  F(no5)           G5/D            A5    Am/C       A5    Am/C
e|--------------------------|--------------------------|--------------------------|--------------------------|
B|--------------------------|--------------------------|--------------------------|--------------------------|
G|--------------------------|--------------------------|--2--2--2--2-----2--2--2--|--2--2--2--2-----2--2--2--|
D|--7--7--7--7--7--7--7--7--|--5--5--5--5--5--5--5--5--|--2--2--2--2-----2--2--2--|--2--2--2--2-----2--2--2--|
A|--8--8--8--8--8--8--8--8--|--5--5--5--5--5--5--5--5--|--0--0--0--3-----3--3--3--|--0--0--0--3-----3--3--3--|
E|--------------------------|--------------------------|--------------------------|--------------------------|

  F(no5)           G5/D            A5    Am/C       A5    Am/C
e|--------------------------|--------------------------|--------------------------|--------------------------|
B|--------------------------|--------------------------|--------------------------|--------------------------|
G|--------------------------|--------------------------|--2--2--2--2-----2--2--2--|--2--2--2--2-----2--2--2--|
D|--7--7--7--7--7--7--7--7--|--5--5--5--5--5--5--5--5--|--2--2--2--2-----2--2--2--|--2--2--2--2-----2--2--2--|
A|--8--8--8--8--8--8--8--8--|--5--5--5--5--5--5--5--5--|--0--0--0--3-----3--3--3--|--0--0--0--3-----3--3--3--|
E|--------------------------|--------------------------|--------------------------|--------------------------|

Verse 3:
  A5    Am/C       A5    Am/C       A5    Am/C       A5    Am/C
e|--------------------------|--------------------------|--------------------------|--------------------------|
B|--------------------------|--------------------------|--------------------------|--------------------------|
G|--2--2--2--2-----2--2--2--|--2--2--2--2-----2--2--2--|--2--2--2--2-----2--2--2--|--2--2--2--2-----2--2--2--|
D|--2--2--2--2-----2--2--2--|--2--2--2--2-----2--2--2--|--2--2--2--2-----2--2--2--|--2--2--2--2-----2--2--2--|
A|--0--0--0--3-----3--3--3--|--0--0--0--3-----3--3--3--|--0--0--0--3-----3--3--3--|--0--0--0--3-----3--3--3--|
E|--------------------------|--------------------------|--------------------------|--------------------------|

   G5/D   Csus2       G5/D   Csus2
e|--------------------------|--------------------------|
B|--------------------------|--------------------------|
G|----0--------0------------|----0--------0------------|
D|----0--0--0--0---0--0--0--|----0--0--0--0---0--0--0--|
A|--3s5--5--5--3---3--3--3--|--3s5--5--5--3---3--3--3--|
E|--------------------------|--------------------------|

  A5    Am/C       A5    Am/C       A5    Am/C       A5    Am/C
e|--------------------------|--------------------------|--------------------------|--------------------------|
B|--------------------------|--------------------------|--------------------------|--------------------------|
G|--2--2--2--2-----2--2--2--|--2--2--2--2-----2--2--2--|--2--2--2--2-----2--2--2--|--2--2--2--2-----2--2--2--|
D|--2--2--2--2-----2--2--2--|--2--2--2--2-----2--2--2--|--2--2--2--2-----2--2--2--|--2--2--2--2-----2--2--2--|
A|--0--0--0--3-----3--3--3--|--0--0--0--3-----3--3--3--|--0--0--0--3-----3--3--3--|--0--0--0--3-----3--3--3--|
E|--------------------------|--------------------------|--------------------------|--------------------------|

  A5    Am/C       A5    Am/C        G5/D   Csus2       G5/D   Csus2
e|--------------------------|--------------------------|--------------------------|--------------------------|
B|--------------------------|--------------------------|--------------------------|--------------------------|
G|--2--2--2--2-----2--2--2--|--2--2--2--2-----2--2--2--|----0--------0------------|----0--------0------------|
D|--2--2--2--2-----2--2--2--|--2--2--2--2-----2--2--2--|----0--0--0--0---0--0--0--|----0--0--0--0---0--0--0--|
A|--0--0--0--3-----3--3--3--|--0--0--0--3-----3--3--3--|--3s5--5--5--3---3--3--3--|--3s5--5--5--3---3--3--3--|
E|--------------------------|--------------------------|--------------------------|--------------------------|

  A5    Am/C       A5    Am/C
e|--------------------------|--------------------------|
B|--------------------------|--------------------------|
G|--2--2--2--2-----2--2--2--|--2--2--2--2-----2--2--2--|
D|--2--2--2--2-----2--2--2--|--2--2--2--2-----2--2--2--|
A|--0--0--0--3-----3--3--3--|--0--0--0--3-----3--3--3--|
E|--------------------------|--------------------------|

Chorus 4:
  F(no5)           G5/D            A5    Am/C       A5    Am/C
e|--------------------------|--------------------------|--------------------------|--------------------------|
B|--------------------------|--------------------------|--------------------------|--------------------------|
G|--------------------------|--------------------------|--2--2--2--2-----2--2--2--|--2--2--2--2-----2--2--2--|
D|--7--7--7--7--7--7--7--7--|--5--5--5--5--5--5--5--5--|--2--2--2--2-----2--2--2--|--2--2--2--2-----2--2--2--|
A|--8--8--8--8--8--8--8--8--|--5--5--5--5--5--5--5--5--|--0--0--0--3-----3--3--3--|--0--0--0--3-----3--3--3--|
E|--------------------------|--------------------------|--------------------------|--------------------------|

  F(no5)           G5/D            A5    Am/C       A5    Am/C
e|--------------------------|--------------------------|--------------------------|--------------------------|
B|--------------------------|--------------------------|--------------------------|--------------------------|
G|--------------------------|--------------------------|--2--2--2--2-----2--2--2--|--2--2--2--2-----2--2--2--|
D|--7--7--7--7--7--7--7--7--|--5--5--5--5--5--5--5--5--|--2--2--2--2-----2--2--2--|--2--2--2--2-----2--2--2--|
A|--8--8--8--8--8--8--8--8--|--5--5--5--5--5--5--5--5--|--0--0--0--3-----3--3--3--|--0--0--0--3-----3--3--3--|
E|--------------------------|--------------------------|--------------------------|--------------------------|

  F(no5)           G5/D            A5    Am/C       A5    Am/C
e|--------------------------|--------------------------|--------------------------|--------------------------|
B|--------------------------|--------------------------|--------------------------|--------------------------|
G|--------------------------|--------------------------|--2--2--2--2-----2--2--2--|--2--2--2--2-----2--2--2--|
D|--7--7--7--7--7--7--7--7--|--5--5--5--5--5--5--5--5--|--2--2--2--2-----2--2--2--|--2--2--2--2-----2--2--2--|
A|--8--8--8--8--8--8--8--8--|--5--5--5--5--5--5--5--5--|--0--0--0--3-----3--3--3--|--0--0--0--3-----3--3--3--|
E|--------------------------|--------------------------|--------------------------|--------------------------|

  F(no5)           G5/D            A5
e|--------------------------|--------------------------|--------------------------|--------------------------|
B|--------------------------|--------------------------|--------------------------|--------------------------|
G|--------------------------|--------------------------|--2-----------------------|--------------------------|
D|--7--7--7--7--7--7--7--7--|--5--5--5--5--5--5--5--5--|--2-----------------------|--------------------------|
A|--8--8--8--8--8--8--8--8--|--5--5--5--5--5--5--5--5--|--0-----------------------|--------------------------|
E|--------------------------|--------------------------|--------------------------|--------------------------|


Guitar 2 :

Chorus:



e|--------------------------|--------------------------|--------------------------|--------------------------|
B|--15----------------------|--13----------------------|--------------------------|--------------------------|
G|---0----------------------|---0----------------------|--------------------------|--------------------------|
D|--------------------------|--------------------------|--------------------------|--------------------------|
A|--------------------------|--------------------------|--------------------------|--------------------------|
E|--------------------------|--------------------------|--------------------------|--------------------------|

e|--------------------------|--------------------------|--------------------------|--------------------------|
B|--15----------------------|--13----------------------|--------------------------|--------------------------|
G|---0----------------------|---0----------------------|--------------------------|--------------------------|
D|--------------------------|--------------------------|--------------------------|--------------------------|
A|--------------------------|--------------------------|--------------------------|--------------------------|
E|--------------------------|--------------------------|--------------------------|--------------------------|

Bridge:

e|--------------------------|
B|--------------------------|
G|-----0--2-----0--2--------|
D|--2--------2--------2-----|
A|--------------------------|
E|--------------------------| x16


Piano arrenged for guitar :
e|--8--7------8--7------(5)-|
B|--------------------------|
G|--------------------------|
D|--------------------------|
A|--------------------------|
E|--------------------------| x16

Other versions of This Mess Were In

Alternative guitar chords and tabs for This Mess Were In by PJ Harvey

Find guitar tabs and chords

A B C D E F G H I J K L M N O P Q R S T U V W X Y Z #