GuitarTabsExplorer icon
GuitarTabsExplorer icon

Log in

Songbook

  • Log in to add and see bookmarks

Last visited songs

  • No songs visited yet...
The Ministry Of Defence by PJ Harvey

The Ministry Of Defence bass tab by PJ Harvey

Bass tabs

Intro:

G|--------------------------|--------------------------|--------------------------|--------------------------|
D|--------------------------|--------------------------|--------------------------|--------------------------|
A|--------------------------|--------------------------|--------------------------|--------------------------|
E|--7-7-7-7---7-------------|--------------------------|--7-7-7-7---7-------------|--------------------------|

Verse 1:

G|--------------------------|--------------------------|--------------------------|--------------------------|
D|--------------------------|--------------------------|--------------------------|--------------------------|
A|--------------------------|--------------------------|--------------------------|--------------------------|
E|--7-7-7-7---7-------------|--------------------------|--7-7-7-7---7-------------|--------------------------|

G|--------------------------|--------------------------|--------------------------|--------------------------|
D|--------------------------|--------------------------|--------------------------|--------------------------|
A|--------------------------|--------------------------|--------------------------|--------------------------|
E|--7-7-7-7---7-------------|--------------------------|--7-7-7-7---7-------------|--------------------------|

G|--------------------------|--------------------------|--------------------------|--------------------------|
D|--------------------------|--------------------------|--------------------------|--------------------------|
A|--------------------------|--------------------------|--------------------------|--------------------------|
E|--7-7-7-7---7-------------|--------------------------|--7-7-7-7---7-------------|--------------------------|

G|--------------------------|--------------------------|--------------------------|--------------------------|
D|--------------------------|--------------------------|--------------------------|--------------------------|
A|--------------------------|--------------------------|--------------------------|--------------------------|
E|--7-7-7-7---7-------------|--------------------------|--7-7-7-7---7-------------|--------------------------|

Chorus 1:

G|--------------------------|--------------------------|--------------------------|--------------------------|
D|--------------------------|--------------------------|--------------------------|--------------------------|
A|--------------------------|--------------------------|--5-5-5-5---5-------------|--------------------------|
E|--3-3-3-3---3-------------|--------------------------|--------------------------|--------------------------|

G|--------------------------|--------------------------|--------------------------|--------------------------|
D|--------------------------|--------------------------|--------------------------|--------------------------|
A|--------------------------|--------------------------|--------------------------|--------------------------|
E|--5-5-5-5---5-------------|--------------------------|--2-2-2-2---2-------------|--------------------------|

G|--------------------------|--------------------------|--------------------------|--------------------------|
D|--------------------------|--------------------------|--------------------------|--------------------------|
A|--------------------------|--------------------------|--------------------------|--------------------------|
E|--7-7-7-7---7-------------|--------------------------|--7-7-7-7---7-------------|--------------------------|


Verse 2:

G|--------------------------|--------------------------|--------------------------|--------------------------|
D|--------------------------|--------------------------|--------------------------|--------------------------|
A|--------------------------|--------------------------|--------------------------|--------------------------|
E|--7-7-7-7---7-------------|--------------------------|--7-7-7-7---7-------------|--------------------------|

G|--------------------------|--------------------------|--------------------------|--------------------------|
D|--------------------------|--------------------------|--------------------------|--------------------------|
A|--------------------------|--------------------------|--------------------------|--------------------------|
E|--7-7-7-7---7-------------|--------------------------|--7-7-7-7---7-------------|--------------------------|
Chorus 2:

G|--------------------------|--------------------------|--------------------------|--------------------------|
D|--------------------------|--------------------------|--------------------------|--------------------------|
A|--------------------------|--------------------------|--5-5-5-5---5-------------|--------------------------|
E|--3-3-3-3---3-------------|--------------------------|--------------------------|--------------------------|

G|--------------------------|--------------------------|--------------------------|--------------------------|
D|--------------------------|--------------------------|--------------------------|--------------------------|
A|--------------------------|--------------------------|--------------------------|--------------------------|
E|--5-5-5-5---5-------------|--------------------------|--2-2-2-2---2-------------|--------------------------|

G|--------------------------|--------------------------|--------------------------|--------------------------|
D|--------------------------|--------------------------|--------------------------|--------------------------|
A|--------------------------|--------------------------|--5-5-5-5---5-------------|--------------------------|
E|--3-3-3-3---3-------------|--------------------------|--------------------------|--------------------------|

G|--------------------------|--------------------------|--------------------------|--------------------------|
D|--------------------------|--------------------------|--------------------------|--------------------------|
A|--------------------------|--------------------------|--------------------------|--------------------------|
E|--5-5-5-5---5-------------|--------------------------|--2-2-2-2---2-------------|--------------------------|

G|--------------------------|--------------------------|--------------------------|--------------------------|
D|--------------------------|--------------------------|--------------------------|--------------------------|
A|--------------------------|--------------------------|--------------------------|--------------------------|
E|--0-0-0-0---0-------------|--------------------------|--0-0-0-0---0-------------|--------------------------|


G|--------------------------|--------------------------|--------------------------|--------------------------|
D|--------------------------|--------------------------|--------------------------|--------------------------|
A|--------------------------|--------------------------|--------------------------|--------------------------|
E|--7-7-7-7---7-------------|--------------------------|--7-7-7-7---7-------------|--------------------------|


Sax Solo:

G|--------------------------|--------------------------|--------------------------|--------------------------|
D|--------------------------|--------------------------|--------------------------|--------------------------|
A|--------------------------|--------------------------|--------------------------|--------------------------|
E|--0-0-0-0---0-------------|--------------------------|--0-0-0-0---0-------------|--------------------------|

G|--------------------------|--------------------------|--------------------------|--------------------------|
D|--------------------------|--------------------------|--------------------------|--------------------------|
A|--------------------------|--------------------------|--------------------------|--------------------------|
E|--7-7-7-7---7-------------|--------------------------|--7-7-7-7---7-------------|--------------------------|

G|--------------------------|--------------------------|--------------------------|--------------------------|
D|--------------------------|--------------------------|--------------------------|--------------------------|
A|--------------------------|--------------------------|--------------------------|--------------------------|
E|--7-7-7-7---7-------------|--------------------------|--7-7-7-7---7-------------|--------------------------|

Verse 3:

G|--------------------------|--------------------------|--------------------------|--------------------------|
D|--------------------------|--------------------------|--------------------------|--------------------------|
A|--------------------------|--------------------------|--------------------------|--------------------------|
E|--7-7-7-7---7-------------|--------------------------|--7-7-7-7---7-------------|--------------------------|

G|--------------------------|--------------------------|--------------------------|--------------------------|
D|--------------------------|--------------------------|--------------------------|--------------------------|
A|--------------------------|--------------------------|--------------------------|--------------------------|
E|--7-7-7-7---7-------------|--------------------------|--7-7-7-7---7-------------|--------------------------|


Chorus 3:

G|--------------------------|--------------------------|--------------------------|--------------------------|
D|--------------------------|--------------------------|--------------------------|--------------------------|
A|--------------------------|--------------------------|--5-5-5-5---5-------------|--------------------------|
E|--3-3-3-3---3-------------|--------------------------|--------------------------|--------------------------|

G|--------------------------|--------------------------|--------------------------|--------------------------|
D|--------------------------|--------------------------|--------------------------|--------------------------|
A|--------------------------|--------------------------|--------------------------|--------------------------|
E|--5-5-5-5---5-------------|--------------------------|--2-2-2-2---2-------------|--------------------------|

G|--------------------------|--------------------------|--------------------------|--------------------------|
D|--------------------------|--------------------------|--------------------------|--------------------------|
A|--------------------------|--------------------------|--5-5-5-5---5-------------|--------------------------|
E|--3-3-3-3---3-------------|--------------------------|--------------------------|--------------------------|

G|--------------------------|--------------------------|--------------------------|--------------------------|
D|--------------------------|--------------------------|--------------------------|--------------------------|
A|--------------------------|--------------------------|--------------------------|--------------------------|
E|--5-5-5-5---5-------------|--------------------------|--2-2-2-2---2-------------|--------------------------|


Outro:
G|--------------------------|--------------------------|--------------------------|--------------------------|
D|--------------------------|--------------------------|--------------------------|--------------------------|
A|--------------------------|--------------------------|--------------------------|--------------------------|
E|--7-7-7-7---7-------------|--------------------------|--7-7-7-7---7-------------|--------------------------|

G|--------------------------|--------------------------|--------------------------|--------------------------|
D|--------------------------|--------------------------|--------------------------|--------------------------|
A|--------------------------|--------------------------|--------------------------|--------------------------|
E|--7-7-7-7---7-------------|--------------------------|--7-7-7-7---7-------------|--------------------------|

[ Privacy | About us ]

Welcome to the guitar community

Why join and log in?
- Get songbook with favourite songs
- Get custom made front page
- Submit chords and tabs
- Submit guitar-cover videos
- Get a lot of thumbs up for your work

Songbook

Last visited songs

Site
Home
Search
Community
Submit chords

Video

No video for this page. Check out how you can submit guitar-cover videos here

Search tabs and chords

Browse by artist

A B C D E F G H I J K L M N O P Q R S T U V W X Y Z #


Menu

Search

Video

Bookmark

Login