Log in

One click and you are in

Login with Facebook Login with Google

Why sign up and log in

Guitar Tabs Explorer
PJ Harvey chords for I can hardly wait

Guitar chords with lyrics

Written by: P. J. Harvey
(As performed by: Juliette Lewis on the Strange Days soundtrack)
transcribed by: Joe Lupo


part 1:
(clean)
----------------------------------------------1---1--1---
-----------------4----4--3--3-----------------3---3--3---
-----------------3----3--2--2---3---3--3--3---2---2--2---
---5---5--5--5---0h1--1--0--0---3---3--3--3---0---0--0---
---5---5--5--5------------------1---1--1--1--------------
---3---3--3--3-------------------------------------------

part 2:
(distorted)
-----------------------------------------------------------
-----------------------------------------------------------
-----------------7---7--7--7---3---3--3--3-----------------
---5---5--5--5---7---7--7--7---3---3--3--3---3---3--3--3---
---5---5--5--5---5---5--5--5---1---1--1--1---3---3--3--3---
---3---3--3--3-------------------------------1---1--1--1---

Lyrics: (There are quite a few parts where I'm unsure of the correct lyrics.)

(play part 1)
I ..
I ..
I ..
I ...

(play part 2)
It's ..
I've ..
say, ..
said, ..
lift ..
I'll ..
I'll ..
eat ..

(part 1)
ah.....
I ..
I ..
I ..
I ..

(part 2)
Lips ..
tongue ..
said, ..
said, "..
It's ..
I've ..
you ..
make ..

(part 1)
oh...oh...
In ..
In ...
In ...
In ...

(part 2)
In ...
In ...
In ...
In ...


please send corrections and/or comments to:
jlupo@eden.rutgers.edu
thank you

Almost there ...

Sign in to get your own page with links to favourite songs and more. You are just one click away...

Login with Facebook Login with Google