Log in

One click and you are in

Login with Facebook Login with Google

Why sign up and log in

Guitar Tabs Explorer
Harvest tabs for Epicure

Guitar tabs with lyrics

harvest: epicure

(i have alot missing, but i know what i have is right,
to the best of my ability, from listening to the recording)

the only chords in the song are the two in the begining
they basically just repeat while the 1st guitar backs up
and does some licks...
E-----6-----7-----6-----7-----6-----7-----6-----7----
a-----8-----9-----8-----9-----8-----9-----8-----9----
b-----8-----9-----8-----9-----8-----9-----8-----9----
c----------------------------------------------------
d----------------------------------------------------
e----------------------------------------------------

double the speed, repeat


the little lick in the intro of the song:

E----------------------------------------------------
a-----9---9-8----9---9-8----9---9-8----9---9-8-------
b-------8----------8----------8----------8-----------
c----------------------------------------------------
d----------------------------------------------------
e----------------------------------------------------

E-----9---9-8----9---9-8----9---9-8----9---9-8-------
a-------9----------9----------9----------9-----------
b----------------------------------------------------
c----------------------------------------------------
d----------------------------------------------------
e----------------------------------------------------

1st guitar repeats:

E----------------------------------------------------
a-----9---9-8----9---9-8----9---9-8----9---9-8-------
b-------8----------8----------8----------8-----------
c----------------------------------------------------
d----------------------------------------------------
e----------------------------------------------------

second guitar comes in w/1st guitar repeat:

E2---- 6-----6-----6--------6-----6-----6------------
a2-----8-----8-----8--------8-----8-----8------------
b2-----8-----8-----8--------8-----8-----8------------
c2---------------------------------------------------
d2---------------------------------------------------
e2---------------------------------------------------

1st guitar

E-----9---9-8----9---9-8----9---9-8----9---9-8-------
a-------9----------9----------9----------9-----------
b----------------------------------------------------
c----------------------------------------------------
d----------------------------------------------------
e----------------------------------------------------

second guitar:

E2----7-----7-----7---------7-----7-----7------------
a2----9-----9-----9---------9-----9-----9------------
b2----9-----9-----9---------9-----9-----9------------
c2---------------------------------------------------
d2---------------------------------------------------
e2---------------------------------------------------

Other lick played on 1st guitar

E---------------6->-8--------------------------------
a-----5->-6->-5-------------5->-6->-5--8->-6---------
b----------------------------------------------------
c----------------------------------------------------
d----------------------------------------------------
e----------------------------------------------------

theres some higher stuff in there somewhere...
in fact, that last lick may be in a higher key, may be
chords on some parts, but thats it for the most part...
good luck

i know this isn't much, but it's pretty rare to find this song out there, and it's kinda hard to figure these out because it's so heavily distorted, thought it would help someone...

these tabs writen by: kurt hord
louisvillebmx@netzero.net

(i've writen these tabs so hopefully the lines wont continue
if you print them, becuase that sucks:)

Almost there ...

Sign in to get your own page with links to favourite songs and more. You are just one click away...

Login with Facebook Login with Google