Log in

One click and you are in

Login with Facebook Login with Google

Why sign up and log in

Guitar Tabs Explorer
George Harrison chords for Something acoustic

Guitar chords

Something acoustic
George Harrison
Key:A Major
 

Ok, that's my first tab and I'm so happy that i could make it! :)
I wrote down the chords and the tablature of the song with the picks
that George do. Just listen to the record (Anthology 3 i guess) and
get the rythim!
That's a great song!I hope you enjoy
Pedro Costa
 
Intro.: A...D...C...E
 


Intro Tab
 
E-0---2-5-2-3-4
B-2---3-3---1-5
G-2---2-2---0-4      after it go to A chord diagramA augmentedA chord
D-2--0------2-6         
A-0---------3-7
E-0------------
 

Singing
 
A...A7maj...A7...D...B...B7...E...(1)
something in the way....
 
F#m...F#m7M...F#m7/E...B7(2)
You Know I belive...
 
(1)
E-0-0-0-2--2--2-2-2---0=0=0
B-2-2-2-3--3--3-4-4---0=0=0
G-2-1-0-2--2--2-4-2---1=2=4
D-2-2-2-0-0--4--4-4---2=4=6  
A-0-0-0---------2-2---2----
E-0-0-0-------------0-0----
 

(2)
 
E-2-2-2-2
B-2-2-2-4
G-2-2-2-2
D-4-3-2-4         Go to intro
A-4-4-4-2
E-2-2-0--
 

Bridge:
 
F#...Bbm...D#m/Db...B...E...F#
 
 

F#...Bbm...D#m/Db...B...E...A
 
 
 
E-2-1-6-6-2-0-2                              E-0
B-2-2-7-7-4-0-2                              B-2
G-3-3-8-8-4-1-3  Second time finish with A   G-2
D-4-3-8-8-4-2-4                              D-2
A-4-1-6-6-2-2-4                              A-0
E-2-----9---0-2                              E--
 

Solo 1:
 
Chords singing 1+2+intro
 

Back to singing
(1)+(2)+INTRO
 

End(arpejo)
A...A7maj...A7...D...D9...Dsus4...D...B...E...F#m...F#m6...F#m7/E...B
 

Intro ending in A chord diagramA augmentedA
 
End
 
E-5-4-3-2-0-3-2-2----4-----0-0=0=0-2-2-2-2
B-5-5-2-3-3-3-3-4------7=3---0=0=0-2-2-2-4
G-6-6-0-2-2-2-2-4-2=4------1-1=2=4-2-2-2-4
D-7-6-2-0-0-0-0-4------------2=4=6-4-3-2-4
A-7-0-0---------2------------2=4=7-4-4-4-2
E-5--------------------------0=0=0-2-2-0--
          
 

Intro ending in A chord diagramA augmentedA
 
 
 

E----2-5-2-3-4-9-
B----3-3---1-5-10-
G----2-2---0-4-9-     
D---0------2-6-11-        
A----------3-7---
E----------------
 

🏷Legend:
 
=  "Slide"
 

Transcribed by Pedro costa
Any suggest,coments please send a Email to pedrofc@task.com.br
Thanks Beatles, thanks George
 
Pedro
 

Other versions of Something Acoustic

SomethingChords

Almost there ...

Sign in to get your own page with links to favourite songs and more. You are just one click away...

Login with Facebook Login with Google