Log in

One click and you are in

Login with Facebook Login with Google

Why sign up and log in

Guitar Tabs Explorer
George Harrison chords for Pieces fish

Guitar chords with lyrics

Song title: Pisces Fish
Album: Brainwashed
Transcription: Ricardo Tasquer (www.lospistones.com.ar)
INTRO: A chord diagramFF - A chord diagramC majorC - A chord diagramG+G - A chord diagramA minorAm - A chord diagramG+G - A chord diagramG+G
       A chord diagramFF - A chord diagramC majorC - A chord diagramG+G - A chord diagramA minorAm - A chord diagramG+G - A chord diagramG+G - A chord diagramC majorC


VERSE 1


A chord diagramDmDm                       A chord diagramC majorC
Rowers ......     on the river
A chord diagramDmDm                             A chord diagramG+G
Canadian geese ........... the bank
A chord diagramDmDm                           A chord diagramC majorC    A chord diagramC/BC/B    A chord diagramA minorAm
Back wheel .............  to quiver
    A chord diagramFF             A chord diagramC majorC           A chord diagramG+G
The chain ............... the crank


VERSE 2


same chords until...


          A chord diagramFF      A chord diagramC majorC      A chord diagramG+G     A chord diagramA minorAm      A chord diagramG+G      A chord diagramC majorC
and I'm a Pisces Fish ............... soul

BRIDGE:  A chord diagramG+G - A chord diagramC majorC


And goes the same way in the next verses until...


            A chord diagramG+G                        A chord diagramC majorC
And I'll be swimming ......... those waters
(it goes just like the bridge before)


INTRO TAB:

1|-------------------------------------------------------
2|-------------------------------------------------------
3|--7----9---10---10---9--------5---5---7----7---9-------
4|-------------------------------------------------------
5|--5----7----8----8---7--------3---3---5----5---7-------
6|-------------------------------------------------------

1|-----------------------------------------------
2|-----------------------------------------------
3 |---5------------------------------------------
4 |--------7-----5-------------------------------
5 |---3------------------------------------------
6 |--------5-----3-------------------------------


BRIDGE TAB:

1|------------------------|-----------------------
2|------------------------|-----------------------
3|------------------------|-----------------------
4|------------------------|-----------------------
5|---3----1---------------|----------1----3---3---
6|--------------3----3----|----3------------------


Well, hope you enjoy George's last album the way I'm doing and let's keep George's music alive... :)
Best wishes...

Ricardo Tasquer
www.lospistones.com.ar

Almost there ...

Sign in to get your own page with links to favourite songs and more. You are just one click away...

Login with Facebook Login with Google