Log in

One click and you are in

Login with Facebook Login with Google

Why sign up and log in

Guitar Tabs Explorer
Emmylou Harris bass tabs for One of these days

One Of These Days bass tab by Emmylou Harris

Emmylou Harris bass tabs for One of these days

Bass tabs

🎸 Intro:
G|---------|--------------------|---------------------|
D|-------0-|-1---------3----3---|---------------------|
A|-1--3----|------1-------------|-1---------1-------0-|
E|---------|--------------------|------1---------3----|

🎸 Verse 1:
G|--------------------|--------------------|---------------------|---------------------|
D|--------------------|------1-------------|------1--------------|---------------------|
A|-1---------1--------|-1---------1--------|-1---------1----0----|------3------------0-|
E|------1---------1---|----------------1---|-------------------3-|-1---------1----3----|

G|--------------------|--------------------|--------------------|---------------------|
D|--------------------|------1-------------|------1-------------|-------------------0-|
A|-1---------1--------|-1---------1--------|-1---------1--------|-1---------1----3----|
E|------1---------1---|----------------1---|----------------1---|------1--------------|

🎸 Chorus:
G|--------------------|---------------------|--------------------|-------------------------------|
D|-1---------3--------|-------------------0-|-1------------------|---------------------3-------0-|
A|------1---------3---|-1---------1----3----|------1----1--------|-3--------------3---------3----|
E|--------------------|------1--------------|----------------1---|------3----1-------------------|

G|--------------------|---------------------|--------------------|--------------------------|
D|-1---------3--------|------1------------0-|-1---------3----3---|--------------3-h5-p3-----|
A|------1---------3---|-1---------1----3----|------1-------------|-1---------1-----------5\-|
E|--------------------|---------------------|--------------------|------1-------------------|

🎸 Solo:
G|--------------------|--------------------|--------------------|---------------------|
D|--------------------|------1-------------|------1-------------|-------------------0-|
A|-1---------1--------|-1---------1--------|-1---------1--------|-1---------1----3----|
E|------1---------1---|----------------1---|----------------1---|------1--------------|

G|--------------------|---------------------|--------------------|-------------------|
D|-1---------3--------|------1------------0-|-1---------3----3---|-------------------|
A|------1---------3---|-1---------1----3----|------1-------------|-1----4------------|
E|--------------------|---------------------|--------------------|-----------2-------|

🎸 Verse 2:
G|-----------------------|-----------------------|----------------------|-----------------------|
D|-----------------------|-----1-2---------------|-----1-2--------------|-----1-----------------|
A|-2----------2----------|-2----------2----------|-2----------2----1----|-------4---1---------1-|
E|-----4-2--------4-2--4-|----------------4-2--4-|--------------------4-|-2-----------2----4----|

G|------------------------|-----------------------|-----------------------|-----------------------|
D|------------------------|-----1-2---------------|-----1-2---------------|---------------------1-|
A|-2-----------2----------|-2----------2----------|-2----------2---2-----1|-2---2------2--2--4----|
E|-----4-2---4-----4-2--4-|----------------4-2--4-|------------------2----|-------2---------------|

🎸 Chorus:
G|--------------------|---------------------|-------------------|-------------------------------|
D|-2---------4--------|-------------------1-|-2-----------------|---------------------4-------1-|
A|------2---------4---|-2---------2----4----|------2----2-------|-4--------------4---------4----|
E|--------------------|------2--------------|----------------2--|------4----2-------------------|

G|--------------------|---------------------|----------------------|---------------------|
D|-2---------4--------|------2------------1-|-2---------3/4--------|-------------------1-|
A|------2---------4---|-2---------2----4----|------2---------------|-2---------2----4----|
E|--------------------|---------------------|------------------2---|------2--------------|

🎸 Outro:
G|----------------------|------------------------|
D|-2---------3/4--------|----4-h6-p4-------------|
A|------2---------------|-2-----------6\--2-----2|
E|------------------2---|--------------------2---|


☠☠☠☠☠☠☠☠☠☠☠☠☠☠☠☠☠☠☠☠☠☠☠☠☠☠☠☠☠☠☠☠☠☠☠☠

| / Slide up
| \ Slide down
| h Hammer-on

☠☠☠☠☠☠☠☠☠☠☠☠☠☠☠☠☠☠☠☠☠☠☠☠☠☠☠☠☠☠☠☠☠☠☠☠

Almost there ...

Sign in to get your own page with links to favourite songs and more. You are just one click away...

Login with Facebook Login with Google