Log in

One click and you are in

Login with Facebook Login with Google

Why sign up and log in

Guitar Tabs Explorer
Calvin Harris bass tabs for Rollin

Bass tabs

Intro:

G|-----------------------------------------|
D|-----------------------------------------|
A|--4--44---44--44--4----------------------|
E|---------------------5--55--55--55--5----|


G|-----------------------------------------|
D|-----------------------------------------|
A|--------------------2--22--22--22--2-----|
E|--2--22--22--22--2-----------------------|


This repeats throughout the song, great
beginner song

Almost there ...

Sign in to get your own page with links to favourite songs and more. You are just one click away...

Login with Facebook Login with Google