Log in

One click and you are in

Login with Facebook Login with Google

Why sign up and log in

Guitar Tabs Explorer
Calvin Harris bass tabs for Cash out

Bass tabs

Tuning: Standard (E A D G)


Verse 1:

G|---------------------------------------------------------------------------|
D|---------------------------------------------------------------------------|
A|--------------------------0-0----2-2---------------------------------------|
E|-0-0----2-2----3-3---------------------------------------------------------| x 8

Chorus:

G|--------------------------------------------------------------------------------|
D|--------------------------------------------------------------------------------|
A|-2-2----1-1----0-0----------------------2-2----1-1----0-0-----------------------|
E|--------------------------3-3----0-0-----------------------------3-3----0-1-2-0-| x 2


Verse 2:

G|---------------------------------------------------------------------------|
D|---------------------------------------------------------------------------|
A|--------------------------0-0----2-2---------------------------------------|
E|-0-0----2-2----3-3---------------------------------------------------------| x 5

G|---------------------------------------------------------------------------|
D|---------------------------------------------------------------------------|
A|--------------------------0------------------------------------------------|
E|-0-0----2-2----3-3---------------------------------------------------------|


Chorus:

G|--------------------------------------------------------------------------------|
D|--------------------------------------------------------------------------------|
A|-2-2----1-1----0-0----------------------2-2----1-1----0-0-----------------------|
E|--------------------------3-3----0-0-----------------------------3-3----0-1-2-0-|

G|---------------------------------------------------------------------------|
D|---------------------------------------------------------------------------|
A|-2-2----1-1----0-0---------------------------------------------------------|
E|--------------------------3------------------------------------------------|


Bridge:

Repeat until instrumental cuts off

G|---------------------------------------------------------------------------|
D|---------------------------------------------------------------------------|
A|-2----1----0---------------------------------------------------------------|
E|----------------3----1----2----0-------------------------------------------|

ⓘ Bass guitar tab for 'Cash Out' by Calvin Harris, a male electronic artist from Dumfries, Scotland. Calvin Harris was born in 1984. Calvin Harris is known for his energetic rock/pop music.

Almost there ...

Sign in to get your own page with links to favourite songs and more. You are just one click away...

Login with Facebook Login with Google