Log in

One click and you are in

Login with Facebook Login with Google

Why sign up and log in

Guitar Tabs Explorer
Roy Harper tabs for How does it feel

Guitar tabs with lyrics

Album: Flat, Baroque and Berserk

Open A chord diagramD MajorD tuning: A chord diagramD MajorD A chord diagramA augmentedA A chord diagramD MajorD A chord diagramF#F# A chord diagramA augmentedA A chord diagramD MajorD

Chords:

D:         0 0 0 0 0 0
D5:        0 5 0 3 0 0
D(viii):   0 9 0 8 0 0
D(xii):    0 12 0 12 0 0
Dsus4add9: 0 10 0 10 0 0
A:         7 7 7 7 7 7
G:         5 5 5 5 5 5
G/d:       0 2 0 1 0 0

Intor: Note the major 7th on the opening chord.
This is not a mistake. It may seem strange but I'm sure it's corrct. Also
the unusual time signature changes. This I'm not so sure about. You
certainly can't count 4/4 over this intro. I've done my best to sort it
out though I'm not too hot on time sigs.

2/4                  4/4
-0-|-0-------0---0-0-|-0-----------------------0-0-----
-0-|-0-------0---0-0-|-0-----------------------0-0-----
-0-|-0-------0---0-1-|-1-----------------------1-1-----
-0-|-0-------0---0-0-|-0-------------------------------
---|-4-----------0-2-|-2---------------------------2-0-
---|-0-----------0-0-|-0-------------------------------
   | 1   .   2   .   | 1   .   2   .   3   .   4   .

|-----0-----------------------0---|-----------------------------0--
|---------------------------------|-------------------0------------
|---------0-1---0-1-1-0-----------|---1-1-0-1-1-0-1-1---1-0--------
|-----------------------0---------|-------------------------0------
|---------------------------------|--------------------------------
|-0-----------------------0-------|--------------------------------
| 1   .   2   .   3   .   4   .   | 1   .   2   .   3   .   4   .
   3/4                       4/4
---|-------------------------|----(0)--0---0-0-----0---0-0-0-0-
---|-------------------------|----(0)--0---0-0-----0---0-0-0-0-
(0)|(1)------1-1-0-1-----0---|----(0)--0---0-0-----0---0-0-0-0-
---|-------------------0-0---|---------0-----------0---0-0-0-0-
---|-----------------2-------|---------0-----------------------
---|-----------------------0-|-0-------0-------0---------------
   | 1   .   2   .   3   .   | 1   .   2   .   3   .   4   .

Verse:

A chord diagramD5D5             G/d              A chord diagramD MajorD
  How does it feel    to be completely unreal
  How does it feel    to be a voter
  How does it feel    to be a voluntary heel
A chord diagramA augmentedA
  I wonder who's it is
A chord diagramD MajorD A chord diagramG+G                   A chord diagramD MajorD         A chord diagramG+G              A chord diagramD MajorD
   I see ya queueing up outside   St. Peter's gate
D(xii)           Dsus4add9      D(viii) A chord diagramD5D5         G/d
 You can feel bonified? if you ride      with the tide but its not
Fig.1
4/4                               3/4   m
|-----0---0---0-0-0---0---0-------|-0---0(0)0---0-0-0-0-0-0-
|-----0---0---0-0-0---0---0-------|-0---0(0)0---0-0-0-0-0-0
|-----0---0h1-1-0-1---1---0-------|-0h1-1(0)1---0-1-1-0-0-0-
|---------0---0-0-0---0---0-------|-0---0(0)0---0-0-0-0-0-0-
|---------0h2-2-0-2---2---0-------|-0h2-2---2---0-2-2-0-0-0-
|-0-------0---0-0-0---0---0-------|-0-------0---0-0-0-0-0-0-
| 1   .   2   .   3   .   4   .   | 1   .   2   .   3   .
  real.

4/4
|---------0---x-0---0-0---0-0-0-0-|
|---------0---x-0---0-0---0-0-0-0-|
|---------0---x-0---0-0---0-0-0-0-|
|---------0---x-0-----0---0-0-0-0-|
|---------0-----------0---0---0---|
|-0-------0-------0---0---0---0---|
| 1   .   2   .   3   .   4   .   |


Chorus:
A chord diagramA augmentedA                          A chord diagramD MajorD A chord diagramG+G                  A chord diagramD MajorD
 And outside on the dragon     and inside in the cold
A chord diagramA augmentedA                          A chord diagramD MajorD A chord diagramG+G             A chord diagramA augmentedA
 Mum is on the band wagon      and Dad is just getting old
D(xii)           Dsus4add9  D(viii)   D(xii)      Dsus4add9 D(viii)
 And through the blood spew  heavens, the roar of lust  complains
D(xii)  Dsus4add9   D(viii) A chord diagramD5D5   G/d                      Fig.1
 Please let me in I have no  sins    but you know I'm not real.


________________________________________________________________________________

Almost there ...

Sign in to get your own page with links to favourite songs and more. You are just one click away...

Login with Facebook Login with Google