Francesca by Roy Harper

Francesca tab by Roy Harper

Guitar tabs

Capo 2
Intro: G/D pick repeat

G/D
|--------------------------------|
|----------0---------------0-----|
|------0-------0-------0-------0-|
|----0-------0-------0-------0---|
|--------------------------------|
|10------10------10------10------|

G/C
|--------------------------------|
|----------0---------------0-----|
|------0-------0-------0-------0-|
|----0-------0-------0-------0---|
|--------------------------------|
|8-------8-------8-------8-------|

G
|--------------------------------|
|----------0---------------0-----|
|------0-------0-------0-------0-|
|----0-------0-------0-------0---|
|--------------------------------|
|3-------3-------3-------3-------|

Em9       C/E
|--------------------------------|
|----3---------0h1-------------0-|
|----------0-------0-------0-----|
|----4-------4-------2-------2---|
|--------------------------------|
|0-------0-------0-------0-------|

G
|--------------------------------|
|----------0---------------0-----|
|------0-------0-------0-------0-|
|----0-------0-------0-------0---|
|--------------------------------|
|3-------3-------3-------3-------|

C/G
|--------------------------------|
|----1---------------------1-----|
|----------0-----------0---------|
|----2-------2-------2-------2---|
|--------------------------------|
|3-------3-------3-------3-------|

G
|--------------------------------|
|----0---------------------0-----|
|----------0-----------0---------|
|----0-------0-------0-------0---|
|--------------------------------|
|3-------3-------3-------3-------|

Repeat C/G G twice more

D6/F#
|--------------------------------|
|----------0---------------0-----|
|------2---------------2---------|
|----0-------0-------0-------0---|
|--------------------------------|
|0h2-----2-------2-------2-------|

G        C/G
|--------------------------------|
|----0-----------------1---------|
|----------0---0---0-------0-----|
|----0-------0-------2-------2---|
|--------------------------------|
|3-------3-------3-------3-------|

G
|--------------------------------|
|----0---------0-----0-----------|
|----------0---------------0-----|
|----0-------0-------0-------0---|
|--------------------------------|
|3-------3-------3-------3-------|

G/D   G/C G Em9 C/E       G
Hey Fran-ces-ca    you gave me no warning
G/D   G/C G Em9 C/E       G
Hey Fran-ces-ca   tiptoes in the morning
C/G          G
Thanks for leaving the sunshine
C/G        G
Thanks for leaving me
C/G       G
Thanks for being all of mine
D6/F#      G
Thanks for being free
G/D   G/C G Em9 C/E G
Hey Fran-ces-ca.........

Find guitar tabs and chords

A B C D E F G H I J K L M N O P Q R S T U V W X Y Z #