Log in

One click and you are in

Login with Facebook Login with Google

Why sign up and log in

Guitar Tabs Explorer
Ben Harper tabs for Woman in you

Guitar tabs with lyrics

This is my attempt at a slightly more accurate tab of the song 'Woman
in you' by Ben Harper from the album 'Burn 2 Shine'.

made this effort much simpler.

The main change is the use of A chord diagramBm7Bm7 in place of A chord diagramB minorBm and I've tabbed out the
picking and fills used in the verses. You need to listen carefully to the
record to
get the feel of the arpeggios. The same pattern is repeated throughout the verse
with only one variation which leaves off the final p/o in the A chord diagramE minorEm arpeggio and
simply strums what is an A chord diagramE minor 7Em7 sounding chord.

The bridge is just as shown in the earlier tab.

Hope I've added something to this.
Rich Sutcliffe




Intro & Verse

    A chord diagramBm7Bm7        A chord diagramA augmentedA                        A chord diagramE minorEm

---------2---------------ho-po---------------------------------po-----
---------3------------3--3-4-3--------------------------po----10-8----
---------2----------3----------3------------------7---7-9-7-----------
---------4--------3--------------3------sl-9--7-9-----------9---------
---2-----------0------------------------sl-7--------------------------
----------------------------------------------------------------------


Chorus

  A chord diagramE minorEm                   A chord diagramG+G         A chord diagramA augmentedA            A chord diagramBm7Bm7        A chord diagramE minorEm
--------------------------3-----0--------------2---------|-------------
--------------------------0-------3-3-3-3-3-3--3-------3-|-------------
--------------------------0-------3-3-3-3-3-3--2-------2-|-------------
-0-------0-2-0------------0-------3-3-3-3-3-3--4-------4-|--0-2-0------
-0---2-2-------2---2-0--2-2-------0-0-0-0-0-0--2-------2-|--------2-2--
-----------------------3-3------------------------------|----------0--


BRIDGE: distortion

  A chord diagramE MajorE   A chord diagramG+G   A chord diagramA augmentedA
--0---3---0--
--0---0---2--
--1---0---2-- repeat
--2---0---2--
--2---2---0--
--0---3------

Almost there ...

Sign in to get your own page with links to favourite songs and more. You are just one click away...

Login with Facebook Login with Google