Log in

One click and you are in

Login with Facebook Login with Google

Why sign up and log in

Guitar Tabs Explorer
Ben Harper tabs for Whipping boy

Guitar tabs

~ = vibrato

Capo on 3rd fret

Part1 (play the low notes of the chord heavily)

			(x2)	"Don't want to be your whip-pi-ing boy"
	       A chord diagramC majorC   A chord diagramA minorAm
e -------------x----x--|-------------------------------------------|
b -------------x----1~-|---------------------1~--------------------|
g -------------0~---2~-|---------------------2~--------------------|
d -------------2~---2~-|-------5-5-7-7-9-5s4-2~--------------------|
a ---------0---3~---0~-|-----0-3-3-5-5-7-3s2-0~--------------------|
A chord diagramE MajorE -0h3p0-3-----x----x--|-0-3---------------------------------------|

Part 2
Pick these notes really hard.
e ------------------------------|------------------------------|
b ------------------------------|------------------------------|
g ----2~-5~--2~-----2~-------2--|-----2~-5~--2~----2~----------|
d -2h5-----------5~----5p2-0----|--2h5----------5~----2h0------|
a ------------------------------|-------------------------3-0--|
A chord diagramE MajorE ------------------------------|------------------------------|

The song is mainly just a combination of these two riffs, plus the slide guitar solo.
could just improvise around part2 and the blues scale

ⓘ Ben Harper is

Almost there ...

Sign in to get your own page with links to favourite songs and more. You are just one click away...

Login with Facebook Login with Google