Log in

One click and you are in

Login with Facebook Login with Google

Why sign up and log in

Guitar Tabs Explorer
Ben Harper tabs for The three of us

Guitar tabs with lyrics

The Three of Us
---------------


Album: Welcome to the Cruel World

tab by: Nick Johnson
(a variation on tab my beautiful girlfriend gave me)
---------------------------------

This is the 'rythm' or back-up picking and does not include the
lead/slide he does on the second guitar.
I'll see if I can send the lead later.

He tunes down a step but it sounds fine without that adjustment.

Okay so first:

	(A chord diagramG+G)	                      (A chord diagramC majorC)                 	  	(A chord diagramG+G)
e-------3--2-------------O--------------------------------
B-----------------------1--------------------3------------
G----O--------------O--------------------O----------------
D---------------------------------------------------------
A------------------3--------------------------------------
E-3-------------------------------------3-----------------

e---------3--2-------------O------------------------------
B------O----------------1-----(3-O-1)*-------3------------
G----O----------------O--------------------O--------------
D---------------------------------------------------------
A------------------3--------------------------------------
E-3-------------------------------------3-----------------

*(this addition is transitional and shouldn't affect the
overall timing which is the same as the first 'bar')

<PLAY THIS TWICE> (There's a slight variation in round 2)

THEN:
			       (A chord diagramE minorEm)
e---------------------------------------------------------
B-1-Oh1pO-----------O-----------------O-------------------
G------------O--O-------2--------O--------2---------------
D---------------------------O----2-------------O----------
A---------------------------------------------------------
E---------------3-------2--------O--------2---------------

e-------------------------------------|
B--------O----3-----------------------|
G---O--------------------------0------|
D------------------0---------0--------|
A-------------------------------------|
E---O---------2----------3------------|

<START OVER>

(You can use slight timing variation to
give it some personality on the repeats)
COMMENTS WELCOME at nick@ambppct.org!
ENJOY
&
WILL SOMEONE TAB SOME JOSH CLAYTON PLEASE!! ?!!

ⓘ Ben Harper is

Almost there ...

Sign in to get your own page with links to favourite songs and more. You are just one click away...

Login with Facebook Login with Google