Log in

One click and you are in

Login with Facebook Login with Google

Why sign up and log in

Guitar Tabs Explorer
Ben Harper chords for Sexual healing

Guitar chords with lyrics

Tabbed by:  Brandon Geer

There are only two parts to this song (verse & chorous).
It is easy to learn and sounds good.  This song is
not done on an album he only does it live.
Important:  To get the effect of strumming that Ben
gets in his songs whenever there is a chord which,
needs to be strummed use your fingernails.
Ben also has it tuned down two steps but it doesn't
really matter.  I recommend downloading the song to
get the rhythm.

(Verse)

Chords: A chord diagramG+G  A chord diagramG+G  A chord diagramG+G         A chord diagramA minorAm A chord diagramA minorAm A chord diagramA minorAm       A chord diagramE minorEm A chord diagramE minorEm
E-------x--x--x------------------------------------
B-------x--x--x------------------------------------
G-------0--0--0---------2--2--2--------------------
D-------0--0--0---------2--2--2---------2--2-------
A-------2--2--2----0----0--0--0---------2--2-------
E--3----3--3--3--------------------0----0--0----1--

  A chord diagramFF  A chord diagramFF  A chord diagramFF          A chord diagramC majorC
----------------------------
----------------------------
----------------------------     repeat this once for
--0--0--0--------0h2p0------     intro then 11 more
--0--0--0----3--3-------3--0     till chorus
--1--1--1-------------------

11th verse

        A chord diagramG+G  A chord diagramG+G  A chord diagramG+G         A chord diagramA minorAm A chord diagramA minorAm A chord diagramA minorAm        A chord diagramE minorEm A chord diagramE minorEm
E-------x--x--x------------------------------------
B-------x--x--x------------------------------------
G-------0--0--0---------2--2--2--------------------
D-------0--0--0---------2--2--2---------2--2-------
A-------2--2--2----0----0--0--0---------2--2-------
E--3----3--3--3--------------------0----0--0-------

Chorus begins

                  A chord diagramC majorC  A chord diagramC majorC  A chord diagramC majorC  A chord diagramC majorC     A chord diagramE MajorE  A chord diagramE MajorE  A chord diagramE MajorE  A chord diagramE MajorE     A chord diagramA minorAm A chord diagramA minorAm
E-----------------0--0--0--0-----0--0--0--0-----0--0
B-----------------1--1--1--1-----0--0--0--0-----1--1
G-----------0-----0--0--0--0-----1--1--1--1-----2--2
D--0--2--3--------2--2--2--2-----2--2--2--2-----2--2
A--------------3--3--3--3--3-----2--2--2--2--0--0--0
E-----------------------------0---------------------

  A chord diagramA minorAm A chord diagramA minorAm
--0--0------------------
--1--1------------------
--2--2-----------0------  This repaets 5 times and
--2--2--0--2--3---------  back to chorus
--0--0------------------
------------------------

Play this tab through twice and that is the song.

Tabbed by:  Nathan Fenn

The verse in the above is wrong although the alterations are minor.
The chord progression throughout the verse isn't
	A chord diagramG+G / A chord diagramA minorAm / A chord diagramE minorEm / A chord diagramFF

The correct chords are
	A chord diagramG+G / A chord diagramA minorAm / A chord diagramFF / A chord diagramC majorC
And they're played like this:

   A chord diagramG+G        A chord diagramA minorAm         A chord diagramFF         A chord diagramC majorC

---3---   ---0---   ---0---   ---0---
---3---   ---1---   ---1---   ---1---
---0---   ---2---   ---2---   ---0---
---0---   ---2---   ---3---   ---2---
---2---   ---0---   ---0---   ---3---
---3---   ---X---   ---X---   ---X---

That's pretty much it, have fun
- Nafenn

Almost there ...

Sign in to get your own page with links to favourite songs and more. You are just one click away...

Login with Facebook Login with Google