Log in

One click and you are in

Login with Facebook Login with Google

Why sign up and log in

Guitar Tabs Explorer
Ben Harper chords for Roses from my friends

Guitar chords

ARTIST; BEN HARPER
SONG; ROSES FROM MY FRIENDS
ALBUM; LIVE FROM MARS
TABBED BY; JOHN WISE
EMAIL; tanewise@hotmail.com

this is my first song I have tabbed so bare with me. I'm not too sure on the

chorus so if you have any corections you can email me.

intro; pretty much the same as the verse but with a bit of finger picking.


verse

E------3----0---2--2--2--2--0----0--0--0--0--0--0--0-------------------E
B------3----0---3--3--3--3--0----1--1--1--1--1--1--1-------------------B
G------0----0---2--2--2--2--0----2--0--2--2--2--0--2-------------------G
D--------------------------------2--0--2--2--0--0--2-------------------D
A--2---------------------------------------------------------0-2hp-----A
E--3----------------------------------------------------0-3h--------3--E


There is a slide bit with the A chord diagramE MajorE chord just before the chorus


chorus

E----------------------------------------------------------------------E
B-----------------1--1--1---1-------------------1---1--1--1------------B
G--0---0--0--0----2--2--2---2----0---0--0--0----2---2--2--2--------0-0-G
D--2---2--2--2----2--2--2---2----2---2--2--2----2---2--2--2--0-2h--2-2-D
A--2---2--2--2-------------------2---2--2--2-----------------------2-2-A
E----------------------------------------------------------------------E


E--------------------------3-------------------------------------------E
B--0--1-1-1--1-------1--0--3-----------------0--1-1-1--1--1------------B
G--0--2-0-2--2----0--2--0--------------0--0--0--2-0-2--2--2--0--0--0---G
D--0--2-0-2--2----2--2--0--------------2--2--0--2-0-2--2--2--2--2--0---D
A-----------------2--------2---0-2h----2--2------------------2--2--0---A
E--------------------------3-------------------------------------------E


E--3--3--3--3--3--E
B--3--3--3--3--3--B
G-----------------G
D-----------------D
A--2--2--2--2--2--A
E--3--3--3--3--3--E


not too sure on the end bit of the chorus. Hope it is going to help someone
like many of the tab sheets I have got from this site.

GO THE KIWI'S

Almost there ...

Sign in to get your own page with links to favourite songs and more. You are just one click away...

Login with Facebook Login with Google